I play this Pantera song in drop-D tuning. I think it sounds right.
Just repeat this a few times
----------------------------------
----------------------------------
-10--9-8--------------------------
-10--9-8---8-7-6---3--2-1---8-7-6-
--8--7-6---8-7-6---3--2-1---8-7-6-
-----------8-7-6---3--2-1---8-7-6-
and then...
----------------------------------------
----------------------------------------
-10--9-8-------------5-6-7--------------
-10--9-8---8-7-6~~~~-5-6-7--0~~~~~------
--8--7-6---8-7-6~~~~-3-4-5--0~~~~~------
-----------8-7-6~~~~--------0~~~~~------
and then repeat this somewhere
---------------------------------------------------0~~~------
--2~~~-----------2~~~-----------2~~~-----------2~--2~~~------
--3~~~-----------3~~~-----------3~~~-----------3~------------
-------4-----1--------4-----1--------4-----1-----------------
---------5-6-1----------5-6-1----------5-6-1-----------------
-------------1--------------1--------------1-----------------




Ваше мнение



Капча