No Good (Attack the Radical)
By Pantera
>From the album Vulgar Display of Power



Drop D Tuning
Intro

|------------------------------------------------------------|
|------------------------------------------------------------|
|------------------------------------------------------------|
|---------------------------3--------------------------3---|
|----------------0--3H5------------------0--3H5-------|
|-----0--3H5-----------------0--3H5-------------------|



2nd Half of Intro (Play Twice)
|---------------------------------------------------------------|
|---------------------------------------------------------------|
|---------------------------------------------------------------|
|---------------------------------------------------------------|
|-----------------------------------------------3h5--3h5---|
|--3--4H5--3b--0----0--3h5--3b--0-------------------|


|--------------------------------------------------------------|
|--------------------------------------------------------------|
|--------------------------------------------------------------|
|--------------------------------------------------------------|
|--------------------------------------------------------------|
|-----3--4H5--3b--0-----0--3h5--3b--0--5/7--3----|


|----------------------------------------------------------|
|----------------------------------------------------------|
|----------------------------------------------------------|
|------------------------------------------------------3--|
|----------------------------------------------3--5------|
|--3--4H5--3b--0------0--3--0--3--5--------------|


|------------------------------------------------------------------|
|------------------------------------------------------------------|
|------------------------------------------------------------------|
|------------------------------------------------------------------|
|------------------------------------------------------------------|
|----3--4H5--3b--0-----0--3h5--3b--0--5/7--3----0---------|


|-------------------------------|
|-------------------------------|
|-------------------------------|
|-------------------------------|
|-------------------------------|
|-------------------------------|
Rest for two Bars

In the states there's a problem with race because of ignorant past burned
fires
>From evolution we've killing each other I'd figure man should have it down to
a science

-----------------------------------------------

|-------------------------------------------------------------------------------------------------|
|-------------------------------------------------------------------------------------------------|
|-------------------------------------------------------------------------------------------------|
|-------------------------------------------------------------------------------------------------|
|------5/7---3----1-1--1-1--1-1--1-1----44--44----1-1--1-1--1-1--1-1---5--6-----------|
|------5/7---3----1-1--1-1--1-1--1-1----44--44----1-1--1-1--1-1--1-1---5--6-----------|

3
Times
No chance, not for a minute
not for a second I won't be defensive, I'm straight out, in my opinion,
You'd better listen to a man who knows what he's saying.
I've seen your side, you run and hide, for meer fact that you feel

|----------------------------------------------------------------------------------------|
|----------------------------------------------------------------------------------------|
|----------------------------------------------------------------------------------------|
|----------------------------------------------------------------------------------------|
|-----1-1--1-1--1-1--1-1----44--44----1-1--1-1--1-1--1-1-----5/7--3-----------|
|-----1-1--1-1--1-1--1-1----44--44----1-1--1-1--1-1--1-1-----5/7--3-----------|

inferior, be superior, and know your interior.

Pre-Chorus
------------------------------------------------

|-----------------------------------------------------------------------------------------------------|
|-----------------------------------------------------------------------------------------------------|
|-----------------------------------------------------------------------------------------------------|
|-----------------------------------------------------------------------------------------------------|
|---5/7--77---5/7--77---5/7--77--10--5-----------5/7--77---5/7--77---5/7--77---3--5-----|
|---5/7--77---5/7--77---5/7--77--10--5-----------5/7--77---5/7--77---5/7--77---3--5-----|

Race, pride, prejudice.... Blackman, whiteman, no
stand

|----------------------------------------------------------------------------------------------------|
|----------------------------------------------------------------------------------------------------|
|----------------------------------------------------------------------------------------------------|
|----------------------------------------------------------------------------------------------------|
|---5/7--77---5/7--77---5/7--77--10--5----------5/7--77---5/7--77---5/7--77--10--11---|
|---5/7--77---5/7--77---5/7--77--10--5----------5/7--77---5/7--77---5/7--77--10--11---|

Live in the past, we make it last, a hated mass No solution, mind
polution, for revolution.

(Play 2nd half of intro for chorus)
-------------------------------------------------------------------
So low , behold my eyes,
This land of fools will rise.
No good, for no one,
No good, for no one.

2nd verse ( repeat TAB as above)
-----------------------------------------------------------------
You blame the oppession and play the role of criminals,
To rape and burn, progress is minimal.
White hoods and militants, you know it's such a pity,
Living, breathing, violence in your city.

If one man, had one home, in one world,
He'd live alone without variety, full of anxiety,
No one to point at, question or even talk to in his private grave
No matter what color, he wouldn't be saved from hell, he dwells,
A closed mind playing the part of prison cells.

Pre-chorus
----------------------------
Chorus

1st half of intro



|--------------------------------------------------------------------------------------------|
|--------------------------------------------------------------------------------------------|
|--------------------------------------------------------------------------------------------|
|--------------------------------------------------------------------------------------------|
|----011111111111-3/4---011111111111-3/4---011111111111-3/4---11-11---|
|----011111111111-3/4---011111111111-3/4---011111111111-3/4---11-11---|

(twice)

Chorus

Repeat TAB after solo
Fade Out

Follow album for timing, ect.
No solo yet, will send later.
thanks,
Rich

From: Aaron Wells and Family
To: pantera
This is No good (Attack the Radical) let me know if I'm right or
not on this one. The one that is on the page right now is a mess.

PANTERA
Album: Vulgar Display of Power
No Good (Attack The Radical)
By: Jon Wells

Tune Down to c#



|-----------------------------------------------------------------------------|
|-----------------------------------------------------------------------------|
|-----------------------------------------------------------------------------|
|-------------5~-------------------5~-----------------------------------------|
|-------0-5-7----------------0-5-7--------------------------------------------|
|-0-5-7----------------0-5-7------------------12-----------------------------|


1/4
|-----------------------------------------------------------------------------|
|-----------------------------------------------------------------------------|
|----------------------------7-/-9--7-9-7------------------------------------|
|-----------------------------------------------------------------------------|
|----------------------------5-/-7--5-/-7------------------------------------|
|-0--3--5--3^3--0--5--3--0----------------------------------------------------|


1/4 1/4 1/4
|-----------------------------------------------------------------------------|
|-----------------------------------------------------------------------------|
|-----------------------------------------------------------------------------|
|-------------------------------------------------------------------5~--------|
|-------------------------------------------------------------0-5-7-----------|
|0--3--5--3^3--0--5--3^3-0--5/7--3~---0--3--5--3^3--0---0-5-7-----------------|
pm-----------

1/4 1/4 1/4
|-----------------------------------------------------------------------------|
|-----------------------------------------------------------------------------|
|----------------------------------------------------------------7-/-9--7-/-9|
|-----------------------------------------------------------------------------|
|----------------------------------------------------------------5-/-7--5-/-7|
|-0--3--5--3^3--0--5--3^3-0--5/7--3~---0--3--5--3^3--0--5--3--0---------------|



1/4 1/4 1/4
|-----------------------------------------------------------------------------|
|-----------------------------------------------------------------------------|
|-----------------------------------------------------------------------------|
|--------------------------------------------------------------------5~-------|
|--------------------------------------------------------------0-5-7----------|
|-0--3--5--3^3--0--5--3^3-0--5/7--3~---0--3--5--3^3--0---0-5-7----------------|
pm-----------


1/4 1/4 trem bar
|-----------------------------------------------------------------------------|
|-----------------------------------------------------------------------------|
|-----------------------------------------------------------------------------|
|-------------------------------------2---------------------------------------|
|-------------------------------------2---------------------------------------|
|-0--3--5--3^3--0--5--3^3-0--5/7--3~--0---------------------------------------|


|-----------------------------------------------------------------------------|
|-----------------------------------------------------------------------------|
|-----------------------------------------------------------------------------|
|----------2-2--2-2--2-2--2-2--2-2-2-2---2-2--2-2--2-2--2-2-1-----------------|
|----------2-2--2-2--2-2--2-2--2-2-2-2---2-2--2-2--2-2--2-0-3-----------------|
|-5/7--3~--0-0--0-0--0-0--0-0--0-0-0-0---0-0--0-0--0-0--0---------------------|



|-----------------------------------------------------------------------------|
|-----------------------------------------------------------------------------|
|-----------------------------------------------------------------------------|
|-2-2--2-2--2-2--2-2--2-2-2-2---2-2--2-2--2-2--2-2-1--------------------------|
|-2-2--2-2--2-2--2-2--2-2-2-2---2-2--2-2--2-2--2-0-3--------------------------|
|-0-0--0-0--0-0--0-0--0-0-0-0---0-0--0-0--0-0--0------------------------------|



|-----------------------------------------------------------------------------|
|-----------------------------------------------------------------------------|
|-----------------------------------------------------------------------------|
|-2-2--2-2--2-2--2-2--2-2-2-2---2-2--2-2--2-2--2-2-1--------------------------|
|-2-2--2-2--2-2--2-2--2-2-2-2---2-2--2-2--2-2--2-0-3--------------------------|
|-0-0--0-0--0-0--0-0--0-0-0-0---0-0--0-0--0-0--0------------------------------|


|-----------------------------------------------------------------------------|
|-----------------------------------------------------------------------------|
|-----------------------------------------------------------------------------|
|-2-2--2-2--2-2--2-2--2-2-2-2---2-2--2-2--2-2--2------------------------------|
|-2-2--2-2--2-2--2-2--2-2-2-2---2-2--2-2--2-2--2------------------------------|
|-0-0--0-0--0-0--0-0--0-0-0-0---0-0--0-0--0-0--0--7--3------------------------|



|-----------------------------------------------------------------------------|
|-----------------------------------------------------------------------------|
|-----------------------------------------------------------------------------|
|-3-/-4---4-3---3-3-/-4---4-3---3-3-/-4---4-3-----3---7--3-------------------|
|-1-/-2---2-1---1-1-/-2---2-1---1-1-/-2---2-1-----1---5--1-------------------|
|-----------------------------------------------------------------------------|



|-----------------------------------------------------------------------------|
|-----------------------------------------------------------------------------|
|-----------------------------------------------------------------------------|
|-3-/-4---4-3---3-3-/-4---4-3---3-3-/-4---4-3---------3-----------------------|
|-1-/-2---2-1---1-1-/-2---2-1---1-1-/-2---2-1------5--1-----------------------|
|--------------------------------------------------3--------------------------|



|-----------------------------------------------------------------------------|
|-----------------------------------------------------------------------------|
|-----------------------------------------------------------------------------|
|-3-/-4---4-3---3-3-/-4---4-3---3-3-/-4---4-3-----3---7--3-------------------|
|-1-/-2---2-1---1-1-/-2---2-1---1-1-/-2---2-1-----1---5--1-------------------|
|-----------------------------------------------------------------------------|



|-----------------------------------------------------------------------------|
|-----------------------------------------------------------------------------|
|-----------------------------------------------------------------------------|
|-3-/-4---4-3---3-3-/-4---4-3---3-3-/-4---4-3-----7-8-------------------------|
|-1-/-2---2-1---1-1-/-2---2-1---1-1-/-2---2-1-----5-6-------------------------|
|-----------------------------------------------------------------------------|


Ваше мнение



Капча