From: [email protected] (Rob Schenk)
Mouth For War by Pantera
Normal tuning
Intro
palm mute
----------------------------------------
-----------------------------------------
--------------4--------------------4----4---4-
--------------4--------------------4----4---4-
-0-1-2-2-2-2-2-2-2-0-1-2-2-2-2-2-2-2-
--------------------------------------------
rhythm
---------------------------------
---------------------------------
---------------------------------
---------------------------------
-2---5/9-------5------5/9-----5/9-----5--
-0---3/7---0--3---0--3/7-0--3/7--0-3--
---------------------------------
---------------------------------
---------------------------------
---------------------------------
-----8---9/10------7/8-----5----
0-0-6-0-7/8---0--5/6--0--3---
---------------------------------
---------------------------------
---------------------------------
---------------------------------
----5/7-----4/5----------------
-0-3/5--0--2/3----------------
---------------------------------
---------------------------------
---------------------------------
---------------------------------
-----8---9/10------7/8-----5----
0-0-6-0-7/8---0--5/6--0--3---
Bones in traction... (play intro)
chorus (play rhythm)
bridge
---------------------------------
---------------------------------
---------------------------------
--------------4----------8-7--6--4--4--
-4/6-6--6--2--6--6--6-5--4--2--2--4--
-2/4-4--4------4--4-------------------2--
---------------------------------
---------------------------------
---------------------------------
-2---9--8--7------------------
-2---7--6--5-------------------
-0------------------------------
---------------------------------
---------------------------------
--------------4----------8-7--6--4--4--
-4/6-6--6--2--6--6--6-5--4--2--2--4--
-2/4-4--4------4--4-------------------2--
---------------------------------
---------------------------------
---------------------------------
-2---9--8--7------------------
-2---7--6--5-------------------
-0------------------------------
double time
---------------------------------
---------------------------------
---------------------------------
---------------------------------
-6--6---6/4--------------------
-4--4---4--2--------------------
---------------------------------
---------------------------------
---------------------------------
-------------------------9--------
-6----------------------9-------
-4-4-4-4-4-4-4-4-4---------
---------------------------------
---------------------------------
---------------------------------
-------------------------7--------
-6----------------------7-------
-4-4-4-4-4-4-4-4-4---------




Ваше мнение



Капча