Artist: Pantera
Track:Mouth For War
tabbed by cold_static544 for www.ultimate-guitar.com
Tuning: Standard (alternative is drop D with a capo on 2nd fret but you have
to shift the notes a little, its easier with drop D but its more challenging in standard)
Intro/Pre-Chorus
pm........ .................
|---------------------------------------------|
|---------------------------------------------|
|-------------4-------------------4---4---4---|
|-------------4-------------------4---4---4---|
|-0-1-2-2-2-2-2-2-2-0-1-2-2-2-2-2-2---2---2---|
|---------------------------------------------|
Chorus Fill n.h............(tricky..)
|--------------------------------------|-----------------|
|--------------------------------------|--2.75-2.75-2.75-|
|--------------------------------------|--2.75-2.75-2.75-|
|--------------------------------------|-----------------|
|-2---5/9------5------5/9----5/9----5--|-----------------|
|-0---3/7---0--3---0--3/7-0--3/7--0-3--|-----------------|
Verse
p.m.. .. ... ... .. ...
|-------------------------------------------|
|-------------------------------------------|
|-------------------------------------------|
|-------------------------------------------|
|-2---8---9/10-----7/8-----5----5/7-----4/5-|
|-0-0-6-0-7/8---0--5/6--0--3--0-3/5--0--2/3-|
p.m.. .. .. .. n.h............
|------------------------------|----------------|
|------------------------------|-2.75-2.75-2.75-|
|------------------------------|-2.75-2.75-2.75-|
|------------------------------|----------------|
|-----8---9/10----7/8-------5--|----------------|
|-0-0-6-0-7/8--0--5/6--0----3--|----------------|
Fill at beginning of each verse
|-----|
|-----|
|-----|
|-----|
|-2-2-|
|-0-0-|
Rhythm under solo/Pre-Breakdown
|-------------------------------------|
|-------------------------------------|
|-------------------------------------|
|-----------4--------8-7--6--4--4-----|
|-4/6-6--6--2--6--6--6-5--4--2--2--4--|
|-2/4-4--4-----4--4----------------2--|
|-------------|
|-------------|
|-------------|
|-2---9--8--7-|
|-2---7--6--5-|
|-0-----------|
|-----------------------------------------|
|-----------------------------------------|
|-----------------------------------------|
|-----------4-------------8-7--6--4--4----|
|-4/6-6--6--2---6--6------6-5--4--2--2--4-|
|-2/4-4--4------4--4--------------------2-|
|-------------|
|-------------|
|-------------|
|-2---9--8--7-|
|-2---7--6--5-|
|-0-----------|
Breakdown
|---------------------------------|
|---------------------------------|
|---------------------------------|
|---------------------------------|
|-6--6---6/4----------------------|
|-4--4---4-2----------------------|
p.m.................
|----------------------------------|
|----------------------------------|
|----------------------------------|
|------------------------9---------|
|-6----------------------9---------|
|-4-4-4-4-4-4-4-4-4------7---------|
p.m................
|---------------------------------|
|---------------------------------|
|---------------------------------|
|------------------------7--------|
|-6----------------------7--------|
|-4-4-4-4-4-4-4-4-4------5--------|
Solo
(take note of the amount of bend required, this really spices up the solo...)
1.5 1 1.5
|-----------------------------------------------------|
|---------------9b--------9--12--12b---12b---12-------|
|--------8------------/9------------------------13~---|
|-4h6~------6-----------------------------------------|
|-----------------------------------------------------|
|-----------------------------------------------------|
1 1-1/2
|--7--7--7--7--7--x--x--7---x--7--/9--------16--19--19b---19b---19~--|
|-----------------x--x------x----------/17---------------------------|
|--4--4--4--4--4--x--x--4---x--4--/6---------------------------------|
|--------------------------------------------------------------------|
|--------------------------------------------------------------------|
|--------------------------------------------------------------------|

1/2 1/2 1/2 ____Divebomb______
|---22b-r-b~---22b-r-b~---22b-r-b~---22b--22--22--22r--|
|--x---------------------------------21b--21--21--21r--|
|-x----------------------------------------------------|
|------------------------------------------------------|
|------------------------------------------------------|
|------------------------------------------------------|
(very fast, be careful, palm mute slightly the bass notes)
|------------------------------------------------------------------------------|
|------------------------------------------------------------------------------|
|------------------------------------------------------------------------------|
|-------------------------------------------------------------14--------14-16--|
|----------------------14--------14-16-----14-16-17--14-16-17-----16-14--------|
|--/14-14-16--14-16-17-----16-17--------17-------------------------------------|
|------------------------------------------------16------|
|--------------^-------12--^---16-19p16----19b-----19-16-|
|--^-11-13----11-13-14----18b-----------18---------------|
|-14-------14--------------------------------------------|
|--------------------------------------------------------|
|--------------------------------------------------------|
|--------------------------------------------------------16--------|
|------------------------------------16-19p16------19b-------19-16-|
|------------------------14-16--18b-----------18-------------------|
|-----14-16-18--14-16-18-------------------------------------------|
|--17--------------------------------------------------------------|
|------------------------------------------------------------------|
|------repeat once--------| 1-1/2 1
|---------------------16--------19b--------r16-------------------|
|----16-19p16---19b-----19-16---------------------17b~----------|
|-18b---------18-------------------------------------------------|
|----------------------------------------------------------------|
|----------------------------------------------------------------|
|----------------------------------------------------------------|




Ваше мнение



Капча