Author/Artist: Pantera
Title: live in a hole
Album: Vulgar
Transcribed by: Adam Watson
Email: [email protected]
Archived by: -=UMS=- http://members.tripod.com/~ums02/pantera
wah wah pedal!!!!
Drop D tuning
sorry if you wanted the lead at the start but i couldn't figure it out
---------------|----------------------------------------|---------------------
---------------|----------------------------------------|---------------------
---------------|----------------------------------------|---------------------
---------------|-10--9--6-------------------------------|---------------------
-x-x-x---x-x-x-|-8---7--8---8-7-6-----3-2-1----8-7-6----|---------------------
-x-x-x---x-x-x-|------------8-7-6-----3-2-1----8-7-6----|---------------------
play this x4 main part of song.play this a fair few times
----------------------|------------------|-----------------|------------------
----------------------|------------------|-2---------------|-2---2~~-----------
----------------------|------------------|-3---------------|-3----------------
-10-9--8--------------|---5-6-7----------|----3------------|------------------
-8--7--6--8-7-6-------|---3-4-5---0------|------4-5--0-----|------------------
----------8-7-6-------|-----------0------|-----------0-----|------------------
bit of a pause play this a few times then this at end
This is a kick ass song have fun with it.....


Ваше мнение



Капча