E-------------------------------------------|
B-------------------------------------------|
G-------------------------------------------|
D-------------------------------------------|
A--2-------------------7----6---5-----------|
E--0--3p0--3p0--3/5~~----5----5---3p0--3p0--| Repeat as many times as nessecary

E---------------------------------------------|
B---------------------------------------------|
G---------------------------------------------|
D---------------------------------------------|
A--2-----------------7---6---5--------------2-|
E--0--3-0-3-0--3/5~~---5---5----5---3-0-3-0-0-|
p.m............................................

E-------------------------------------------|
B-------------------------------------------|
G------------555----------------------------|
D------------555-----------888--------------|
A------------333-----------888--------------|
E---5b-5b-5b-----5b-5b-5b--666--------------|

Not sure if its right but sounds really close.
anyways my first tab.




Ваше мнение



Капча