Band: PanterA
Song: I'll cast a shadow
Album: Reinventing the Steel
Tabbed by: Knotist E-mail: [email protected]
Dropped C tuning
Riff A
A |-------------------------------| |-----------------------|
F |----------10---------7-----7---| Play 3 times |----------8^v^v^-------|
C |----------10---------7-----7---| then |----------8^v^v^-------|
G |-------------------------------| |-----------------------|
C |--0-0-0-0----0-0-0-0---0-0-----| |--0-0-0-0---------10--|
. . . . . . . . . . . . . .
Riff B
A |----------------------------------------------------|
F |----------10---------7-------------3----------------|
C |----------10---------7-----------3------------------|
G |-------------------------------1---------3-5^3-0----|
C |--0-0-0-0----0-0-0-0---0-0-1^3-------3^5---------3--|
. . . . . . . . . . Play 2 X
A |----------------------------------------------------|
F |----------10---------7-------------------------3----|
C |----------10---------7-----------------------3------|
G |-------------------------------3-5^3-0-----1--------|
C |--0-0-0-0----0-0-0-0---0-0-3^5---------3-1----------|
. . . . . . . . . .
Riff C
C |-----------------------------------------------------------------------|
G |--3---0--3----0--3--0--/8--6^v^v^----3---0--3----0--3--0--/8--6----/9--|
C |--3---0--3----0--3--0--/8--6^v^v^----3---0--3----0--3--0--/8--6----/9--|
Riff D Harmonics |---5---5---5---5---|
G |--------------------| |---5---5---5---5----| |-----4---4---4---4-|
C |---5-5-5-5-5-5-5-5--| Play 4 X |-----4---4---4---4--| 2 X |-------------------|
Riff E
C |--------------------------------------| |--------------------------------------|
G |--------------------------------------| |--0--3--5--6--5--0--3--5--0--1--3--0--|
C |--0--3--5--6--5--0--3--5--0--1--3--0--| |--0--3--5--6--5--0--3--5--0--1--3--0--|
. . . . . . . . . . . .
Riff F
C |----------------------------|
G |-----/5--8^^^5----8^v^v^----|
C |--0------------6------------|
That's pretty much it
Dimebag rules
Notation guide
. palm mute
/ Slide up
Slide down
^v^ vibro
^ hammer on/ pull off
Knotist




Ваше мнение



Капча