Hollow by Pantera
off of Vulgar Display of Power
Ok now here is what I beleive to be that tab's to Hollow. The tuning is
down 1/2 step (Eb,Ab,Db,Gb,Bb,Eb). I haven't been able to figure out the
solo's yet so if anyone could add them to this tab file or EMail 'em to
me I'd appretiate it.
Main Riff
Eb|--------------------------------------------------------------------------
Bb|------1-0-1-------1-0-1-------1-0-1-------1-0-1-------1-0-1-------1-0-1---
Gb|*-----------2-----------2-----------2-----------2-----------2-----------2-
Db|*---2-----------2-----------2-----------2---------2-------------3---------
Ab|--0-----------3-----------------------0---------0-------------3-----------
Eb|--------------------------3-----------------------------------------------
Main Riff (continued)
Eb|--------------------------------------------------------------------------
Bb|------1-0-1---------0-1--------1-0-1-------1-0-1---------0-1---------0-1--
Gb|------------2-----------2------------2-----------2-----------2-----------2
Db|----2-------------2----------0-----------0-------------2-----------2------
Ab|----------------0------------------------------------0-----------0--------
Eb|--3-----------2------------0-----------0-----------2-----------2----------
Main Riff (continued)
Eb|---------------------------------------|
Bb|--------0-1---------0-1---------0-1----|
Gb|------------2-----------2-----------2-*|
Db|------2-----------2-----------2-------*|
Ab|----0-----------0-----------0----------|
Eb|--3-----------3-----------4------------|
Riff before Heavy Distortion kicks in (while Phil whispers "He as hollow
as I alone now")
Eb|------------------------------------------------------------------------|
Bb|------------------------------------------------------------------------|
Gb|--------0-----------0-----------0-----------0-----0-----0---------------|
Db|------4---4-------4---4-------4---4-------4-----3-----2-----------------|
Ab|----2-------2---2-------2---2-------2---2-----1-----0-------------------|
Eb|--0-----------0-----------0-----------0---------------------------------|
I'm not to sure about this part here----\_______________/




Ваше мнение



Капча