Hell's Wrath
By Pantera
>From The Great Southern Trendkill
Tabbed by SS-3
[email protected]

Tune guitar down 1 1/2 steps

/-Slide up
-Slide down
.-palm mute
~-vibrato
A.H.-Artificial Harmonics


D|---------------------------------------------------------|
A|-4-44-4-4-4-44-4-4-4-4----------4-44-4-4-4-44-4----------|
E|-2-22-2-2-2-22-2-2-2-2-22222222-2-22-2-2-2-22-2--/15~---|
.. . .. . . ........ .. . ..

D|----------------------------------| |---------------------|
A|-2-22-2-2-2-22-2-2-2-2------------| |---------------------|
E|-0-00-0-0-0-00-0-0-0-0-00001111---| |-000000-/6b-3-/7b---|
.. . .. . . ........ ......

D|--------------------------------|
A|-/9-99-8-----7-77-6---------4---|
E|-/7-77-6-666-5-55-4-444-333-2---|
.. . ... .. . ... ...

1st and 3rd time 2nd 4th
D|--------------------------------| |-7s8-| |-8p7-|
A|---7p5---------5p0-----5p0-6s7--| |-----| |-----|
E|-0-----0-6s7-0-----6s7----------| |-----| |-----|
A.H.------------------------- A.H. A.H.

D|-------------------------------|
A|-4-44-4-4-4-44-4-4-4-----------|
E|-2-22-2-2-2-22-2-2-2--/15~~---|
.. . .. .

D|----------------------------------| |---------|
A|-2-22-2-2-2-22-2-2-2-2------------| |-4---44--|
E|-0-00-0-0-0-00-0-0-0-0-00001111---| |-2---22--|
.. . .. . . ........

D|----------------------------------|
A|-2-22-2-2-2-22-2-2-2-2------------|
E|-0-00-0-0-0-00-0-0-0-0-00001111---|
.. . .. . . ........

D|--------------------------------|
A|-/9-99-8-----7-77-6---------4---|
E|-/7-77-6-666-5-55-4-444-333-2---|
.. . ... .. . ... ...

1st and 3rd time 2nd 4th
D|--------------------------------| |-7s8-| |-8p7-|
A|---7p5---------5p0-----5p0-6s7--| |-----| |-----|
E|-0-----0-6s7-0-----6s7----------| |-----| |-----|
A.H.------------------------- A.H. A.H.

1st, 2nd, and 3rd time
D|----------------|
A|-5-4-3-/7-8-9---|
E|-3-2-1-/5-6-7---|

D|--------------------------------|
A|---7p5---------5p0-----5p0-6s7--|
E|-0-----0-6s7-0-----6s7----------|
A.H.-------------------------

D|----------------------|
A|----------------------|
E|-3~-2~-1~-/6b-6~-5~---|

D|--------------------------------| |-2-2-2-|
A|-/9-99-8-----7-77-6---------4---| |-2-2-2-|
E|-/7-77-6-666-5-55-4-444-333-2---| |-0-0-0-|
.. . ... .. . ... ...

D|----------------------------------------------------------------------------|
A|-3-------------3-5--------------5-6--------------6-7------------------------|
E|-111111111111111-3333333333333333-4444444444444444-555555555555555-/7-7-7--|
............. .............. .............. ..............

D|-------------------------------|
A|-4-44-4-4-4-44-4-4-4-----------|
E|-2-22-2-2-2-22-2-2-2-22222222--|
.. . .. . ........

D|---------------------------------| |------------/9--| |---------------|
A|-2-22-2-2-2-22-2-2-2-2-----------| |-2-22-2-2-2-/7--| |----------4-44-|
E|-0-00-0-0-0-00-0-0-0-0-00001111--| |-0-00-0-0-0-/7--| |-00001111-2-22-|
.. . .. . . ........ .. . ........

D|----------------------------------|
A|-2-22-2-2-2-22-2-2-2-2------------|
E|-0-00-0-0-0-00-0-0-0-0-00001111---|
.. . .. . . ........

D|--------------------------------|
A|-/9-99-8-----7-77-6---------4---|
E|-/7-77-6-666-5-55-4-444-333-2---|
.. . ... .. . ... ...

1st and 3rd time 2nd 4th
D|--------------------------------| |-7s8-| |-8p7-|
A|---7p5---------5p0-----5p0-6s7--| |-----| |-----|
E|-0-----0-6s7-0-----6s7----------| |-----| |-----|
A.H.------------------------- A.H. A.H.

1st, 2nd, and 3rd time
D|----------------|
A|-5-4-3-/7-8-9---|
E|-3-2-1-/5-6-7---|

D|--------------------------------|
A|---7p5---------5p0-----5p0-6s7--|
E|-0-----0-6s7-0-----6s7----------|
A.H.-------------------------

D|----------------------|
A|----------------------|
E|-3~-2~-1~-/6b-6~-5~---|

D|---------------------------------|
A|-/9-99-8-----7-77-6---------4-2--|
E|-/7-77-6-666-5-55-4-444-333-2-0--|
.. . ... .. . ... ...




Ваше мнение



Капча