Fucking Hostile
Pantera
tabbed by: KoRny Freak
G||----------------------|--------------------|--------------------|
D||o---------------------|--------------------|--------------------|
A||o--5----------------5/|/7----------------5/|/7----------------5/|
E||---3-5-55-5-5-55-55-3/|/5-5-55-5-5-55-55-3/|/5-5-55-5-5-55-55-3/|
pm-----------| sl pm-----------| sl pm-----------| sl
play 4x
G||---------------------|------------------||
D||---------------------|-------------5---o||
A||-/7------------------|-5---4---3---3---o||
E||-/5-5-55-5-5-55-55-5-|-3---2---1--------||
pm-------------|
G|-------------------|
D|-----------7-----7-|
A|-----------------5-|
E|-5-55-5555---------|
pm------
riff A |-1rst ending |
|
G||-------------------|-----|-----------------|-----------------------||
D||o--5-------------7-|--%--|-5---------------|-------------------7--o||
A||o--3-----x-5-----5-|-----|-3---x-5---5-7---|-------------------5--o||
E||---------x-3-------|-----|-----x-3-r-3-5---|-5555-5555-5555-55-----||
pm----------------|
|-2nd ending |
| end riff A-| play 6x
G|-----------------|-----||---------------------||-------------------|------|
D|-5---------------|-----||o-------------------o||-------------------|------|
A|-3---x-5---5-7---|-----||o--2------5------5--o||-2------5------52-|-2----|
E|-----x-3-r-3-5-r-|--r--||---0-00-0-3---00-3---||-0-00-0-3---00-32-|-0-r--|
pm-| pm pm-| pm sl
repeat from beginning
soloriff:
G||-----------------------|---------------------|-----|-----|--------------||
D||o----------------------|---------------------|--%--|--%--|----------5--o||
A||o--5-------------------|---------------------|-----|-----|-5--4--3--3--o||
E||---3-55-5555-5-55-5555-|-5-55-5555-5-55-5555-|-----|-----|-3--2--1------||
G|-------------------| |---------------|
D|-----------------7-| play riff A |---------------|
A|-----------7-----5-| |-----------11-|
E|-5-55-5555-5-------| |-r-------------|
sl
repeat from beginning to end of riff A
G|--------------|-------------|--------------|--------------|-------------|
D|--------------|-------------|--------------|--------------|-------------|
A|----------5---|-6--7--------|----5--6--7---|----------4---|-5--6--7-----|
E|-r--------3---|-4--5--r-----|-r--3--4--5---|-r--------2---|-3--4--5--r--|
if you have any questions or comments, email me at
[email protected]
[email protected]
Get your FREE download of MSN Explorer at http://explorer.msn.com/intl.asp




Ваше мнение



Капча