-------------------------------------------------------------------------------
SONG NAME - Pantera
-------------------------------------------------------------------------------
Tabbed by:Angus Battison / Andrew Curley
Email:[email protected]
Tuning:Tuned down one step (D,G,CF,A,d)
INTRO.
x5
e|-------------------------------------------------------------------------------|
B|-------------------------------------------------------------------------------|
G|-------------------------------------------------------------------------------|
D|-------------------------------------------------------------------------------|
A|--5-/-7---2--x--5-/-7--2--x-x---2---5-/-7--2--x--8--/-5--2--x-x-x--------------|
E|--3-/-5---0--x--3-/-5--0--x-x---0---3-/-5--0--x--6--/-3--0--x-x-x--------------|
INTERLUDE.
e|---------------------------------------------------------------------------|
B|---------------------------------------------------------------------------|
G|---------------------------------------------------------------------------|
D|-------9-------------------------------------------------------------------|
A|---/9-----9--8---7-/-5-----5----------4----------2-------------------------|
E|------------------------7------5-/-3------3-/-1-----1----------------------|
Verse 1 & 2
PM- - - - -] PM-----------] PM----------------------------------|
e|-------------------------------------------------------------------------------|
B|-------------------------------------------------------------------------------|
G|-------------------------------------------------------------------------------|
D|-2-2-2-2-2-2---2-2-2---2-2-2-2-2-2---2-2-2----1-1-1-1-1-1---1-1-1-x2-----------|
A|-2-2-2-2-2-2---2-2-2---2-2-2-2-2-2---2-2-2----1-1-1-1-1-1---1-1-1--------------|
E|-0-0-0-0-0-0---0-0-0---0-0-0-0-0-0---0-0-0----0-0-0-0-0-0---0-0-0--------------|




Ваше мнение



Капча