Author/Artist: PANTERA
Title: DOMINATION
Album: COWBOYS FROM HELL
Transcribed by: MASTER SORO
Email: [email protected]

standard tunning
i wrote it easy for you to play
help questions
email me

master soro

-|------------|-----------|-----------|-----------|---------------------------
-|------------|-----------|-----------|-----------|---------------------------
-|------------|-----------|-----------|-----------|---------------------------
-|------------|-----------|-----------|-----------|---------------------------
-|------7-5-7-|-----7-5-7-|-----7-5-7-|-----------|---------------------------
-|-0--0-------|-0-0-------|-0-0-------|-0-0-3-5-3-|---------------------------
REPEAT THIS TWO TIMES

-|-------------|-------------|-------------|------------|---------------------
-|-------------|-------------|-------------|------------|---------------------
-|-------------|-------------|-------------|------------|---------------------
-|-------------|-------------|-------------|------------|---------------------
-|-------7-5-7-|-------7-5-7-|-------7-5-7-|------------|---------------------
-|-0-0-0-------|-0-0-0-------|-0-0-0-------|-0-0-0-3-5-3|---------------------
REPEAT THIS TWICE

-|-------------|------------|------------|------------|------------|----------
-|-------------|------------|------------|------------|------------|----------
-|-------------|------------|------------|------------|------------|----------
-|-------------|------------|------------|------------|------------|----------
-|---757----757|---757---757|---757---757|---757------|-222-333-444|----------
-|-00----00----|-00----00---|-00----00---|-00----00353|------------|----------
PLAY TWICE PLAY THIS THE SECOND TIM

------------------------------------------------------------------------------
------------------------------------------------------------------------------
------------------------------------------------------------------------------
------------------------------------------------------------------------------
------------------------------------------------------------------------------
------------------------------------------------------------------------------


-|--------|--------|--------|-----------------|--------|-----------------|----
-|--------|--------|--------|-----------------|--------|-----------------|----
-|--------|--------|--------|-----------------|--------|-----------------|----
-|--------|--------|--------|-----------------|--------|-----------------|----
-|--------|--------|--------|-----------------|--------|-----------------|----
-|-0000-0-|-0000-0-|-0000-0-|-77-66-55-33-2-1-|-0000-0-|-77-66-55-33-2-1-|----
VERSE 7 TIMES

-|--------|-------------------|--------|-----------------|--------------------
-|--------|-------------------|--------|-----------------|--------------------
-|--------|-------------------|--------|-----------------|--------------------
-|--------|-------------------|--------|-----------------|--------------------
-|--------|-------------1---1-|--------|-----------------|--------------------
-|-0000-0-|-0000-0000-00--00--|-0000-0-|-77-66-55-33-2-1-|--------------------
3 TIMES 3 TIMES

-|-----------|--------|--------|--------|-----------------|---------|---------
-|-----------|--------|--------|--------|-----------------|---------|---------
-|-----------|--------|--------|--------|-----------------|---------|---------
-|-----------|--------|--------|--------|-----------------|---------|---------
-|--3--------|------7-|------5-|------7-|-----------------|--3------|---------
-|-----3--5--|-0000---|-0000---|-0000---|-77-66-55-33-2-1-|----3--1-|---------
CHORUS

-|--------|--------|--------|--------------|----------------------------------
-|--------|--------|--------|--------------|----------------------------------
-|--------|--------|--------|--------------|----------------------------------
-|--------|--------|--------|--------------|----------------------------------
-|------7-|------5-|------2-|--------------|----------------------------------
-|-0000---|-0000---|-0000---|-33-44-55-6-7-|----------------------------------
AFTER THE CHORUS REPEAT WHOLE SONG UNTIL THE SOLO

-|---------|------------------------------------------------------------------
-|---------|------------------------------------------------------------------
-|-----5---|------------------------------------------------------------------
-|-------7-|------------------------------------------------------------------
-|---------|------------------------------------------------------------------
-|0000-----|------------------------------------------------------------------
GUITAR SOLO REPEAT ALL SOLO

--|-------------|--------------|-------------------|--------------------------
--|-------------|--------------|-------------------|--------------------------
--|-------------|--------------|-------------------|--------------------------
--|-------------|--------------|-------------------|--------------------------
--|-------------|--------------|-------------------|--------------------------
--|---0-00-0-00-|-0-00-000-000-|-00-22-00-22-00-22-|--------------------------
OUTRO




Ваше мнение



Капча