From Sam Razialruh
[email protected]
Tune down 1/2 step (low to high: Eb, Ab, Db, Gb, Bb, Eb)
INTRO Asus2 (Fill1) E5 Dmaj7 (Fill2)
E-|---------------------|-----------------|-----------------|------0----------|
B-|------------2--------|------0---0------|------0---0------|----2-----2------|
G-|----------2----2-----|----4-------4----|----4-------4----|--4----------4---|
D-|--------2------------|--2--------------|--2------------0-|-----------------|
A-|------4-----------0--|-----------------|-----------------|-----------------|
E-|----2----------------|---------------0-|-----------------|-----------------|

F#m7 Asus2 E5 Dmaj7
E-|-----------------|----------------|---------------|---------0--------------|
B-|---------2-------|------0---0-----|------0--0-----|--2--------2------------|
G-|-------2----2----|----4-------4---|----4------4---|----4--------4----------|
D-|-----2-----------|--2-------------|--2----------0-|------0--------0--------|
A-|---4-----------0-|----------------|---------------|------------------------|
E-|-2---------------|--------------0-|---------------|------------------------|

Reverend Reverend is this some...
F#m7 Asus2 E5 Dmaj7

E-|-----------------|----------------|-----------------|-------0--------------|
B-|----------2------|-------0--0-----|-------0---0-----|----2------2----------|
G-|--------2----2---|----4-------4---|----4--------4---|-4--------------4-----|
D-|------2----------|-2--------------|-2-------------0-|----------------------|
A-|---4-----------0-|----------------|-----------------|----------------------|
E-|-2---------------|--------------0-|-----------------|----------------------|

Fill 1
E-|---------------|----------------||-----------------------------------------|
B-|---------------|----------------||-----------------------------------------|
G-|---------------|----------------||-----------------------------------------|
D-|---------------|----------------||-----------------------------------------|
A-|--0--2--2_4--2-|-----0----------||-----------------------------------------|
E-|---------------|--------4--2--0-||-----------------------------------------|

Fill2
E-|---------------------------------------------------------------------------|
B-|------/^-----/^^^--------------------------------------------------------|
G-|-----6--4----6---2-------------------------------------------------------|
D-|---------------------------------------------------------------------------|
A-|---------------------------------------------------------------------------|
E-|---------------------------------------------------------------------------|

Crucified for no sins An Image benaeth me
F#m7 Asus2 E5 Dmaj7
E-|---------------------|-----------------|-----------------|------0----------|
B-|------------2--------|------0---0------|------0---0------|----2-----2------|
G-|----------2----2-----|----4-------4----|----4-------4----|--4----------4---|
D-|--------2------------|--2--------------|--2------------0-|---------------0-|
A-|------4-----------0--|-----------------|-----------------|-----------------|
E-|----2----------------|---------------0-|-----------------|-----------------|
What's within our plans for life It all seems so unreal
F#m7 Asus2 E5 Dmaj7
E-|---------------------|-----------------|-----------------|------0----------|
B-|------------2--------|------0---0------|------0---0------|----2-----2------|
G-|----------2----2-----|----4-------4----|----4-------4----|--4----------4---|
D-|--------2------------|--2--------------|--2------------0-|-----------------|
A-|------4-----------0--|-----------------|-----------------|-----------------|
E-|----2----------------|---------------0-|-----------------|-----------------|
I'm a man couldn't half feel this world left in my misery
F#m7 Asus2 E5 Dmaj7
E-|---------------------|-----------------|-----------------|-----0^^^-----0------|
B-|------------2--------|------0---0------|------0---0------|-----3-/-5-----5-/-7--|
G-|----------2----2-----|----4-------4----|----4-------4----|--4--4-/-6-----6-/-7--|
D-|--------2------------|--2--------------|--2------------0-|-------------0--------|
A-|------4-----------0--|-----------------|-----------------|----------------------|
E-|----2----------------|---------------0-|-----------------|----------------------|




Ваше мнение



Капча