#----------------------------------PLEASE NOTE--------------------------------#
#This file is the author's own work and represents their interpretation of the#
#song. You may only use this file for private study, scholarship, or research.#
#-----------------------------------------------------------------------------#
#-- File created with Instab - http://www.pconline.com/~smcarey/instab.html --#
#-----------------------------------------------------------------------------#

Author/Artist: PanterA
Title: Avoid the Light
Album: Dracula 2000 soundtrack
Transcribed by: Bryan Kilgore
Email: [email protected]

listen for strum patterns and harmonic squeal timing.
Standard tuning transposed 1 and a half steps down
(C# F# B E G# C#)
h-hold

------------------------------------------------------------------------------
-8--10---11-11-11-11-11-11----8--10-10-10-10-10-10----------------------------
-0---0----0--0--0--0--0--0----0---0--0--0--0--0--0----------------------------
-0---0----0--0--0--0--0--0----0---0--0--0--0--0--0----------------------------
------------------------------------------------------------------------------
------------------------------------------------------------------------------
intro 1 (above)clean tone

---------------------------------|-----------11-13-15h------------------------
-3--6-6-6-6-6-6----3--4-4-4-4-4--|-8-10--11--13-11-15h------------------------
-0--0-0-0-0-0-0----0--0-0-0-0-0--|-0--0---0---0-0-----------------------------
-0--0-0-0-0-0-0----0--0-0-0-0-0--|-0--0---0-----------------------------------
---------------------------------|--------------------------------------------
---------------------------------|--------------------------------------------
intro 1 cont (above)

------------------------------------------------------------------------------
------------------------------------------------------------------------------
-----0-----0-----0-----0-----0-----0-----0-----0-----0-----0-----0-----0------
---0-----0-----0-----0-----0-----0-----0-----0-----0-----0-----0-----0--------
-x-----x-----x-----x-----x-----x-----x-----x-----x-----x-----x-----x----------
-3-----4-----1-----6-----5-----4-----3-----6-----5-----9-----8-----6----------
intro 2(above) x2 clean

------------------------------------------------------------------------------
----8-10-11---8-10-11---------------------------------------------------------
----0--0--0---0--0--0---------------------------------------------------------
----0--0--0---0--0--0---------------------------------------------------------
------------------------------------------------------------------------------
-3h---------------------------------------------------------------------------
bridge clean

------------------------------------------------------------------------------
------------------------------------------------------------------------------
-----3----------3-------------------------------------------------------------
-------4-0--------4-0-/4------------------------------------------------------
-2h-----2---2h-----2---------------------------------------------------------
-h-------2-0h---------------------------------------------------------------
With Heavy Distortion

--------------------------|------------------------|--------------------------
--------------------------|------------------------|--------------------------
--7^---7^-----------------|------------------------|--------------------------
-------9^----/9^-/9^------|-------3--4--5----------|--------------------------
--------------------------|-------1--2--3----------|--------------------------
-0---0--------------------|------------------------|--------------------------
X^-harmonic squeal with heavy distortion




Ваше мнение



Капча