tune down 1/2 step
riff #1
|---------------------------------------------------------------------------|
|---------------------------------------------------------------------------|
.-----------------------------5~--------------------------------------------|
.-------------5-----7-5---5-7-----------------5---7-5--------2--------------|
|---7-5---5-7---0(0)----7-----------7-5---5-7---0(0)-7-7-6-5-2--------------|
|-0(0)--7-------------------------0-----7--------------5-4-3-0--------------|
repeat

riff #2
-----|---------------------|------------------------------|
-----|---------------------|------------------------------|
-----.---------------------.------------------------------|
-(2)-.--------------5(1/4)-.-2--2---2---2-----2-----2---2-|
-(2)-|--------------5(1/4)-|-2--2---2---2-----2-----2---2-|
-(0)-|-(pick slide)-5------|-0--0---0---0-----0-----0---0-|fill w/ riff#2
repeat
I vent my fru stration at you...
fill #1 riff #3
|----------|-----------------------------------|
|----------|-----------------------------------|
.----------.-----------------------------------|
.----------.-----------------------------------|
|-----3-6--|-----------------------------------|
|-0-5------|-0--000--13--0--000--1/131--------|
(1/4) (1/4) (1/4)(1/4)(1/4)
2x's
I vow, lest I die tomorrow, ...

-riff #3 is played throughout rest of song, all notes besides open E's are
1/4 step up, you can get the same effect by pushing the bridge down with
your palm, that is if you have a floyd rose type system, when played right
this riff kicks ass

-note during the 2nd verse the E power chords alternate the vocals
(opposite riff #2)

-all riffs are here, order changes a little


Ваше мнение



Капча