Autor: Panda
Тнтulо: Quisiera no pensar
Бlвum: La Revancha del Рrнnсiре Charro
Persona que hizo el tab : Salvador Рйrеz
Aqui les va la rola de PandA!!!!!
Intro Metalero
|----------------------------------------------------------------|
|----------------------------------------------------------------|
|-66-99-3-4-3--66-99-3-4-3--66-99-3-4-3--66-99-3-4-3-------------|
|-66-99-3-4-3--66-99-3-4-3--66-99-3-4-3--66-99-3-4-3-------------|
|-44-77-1-2-1--44-77-1-2-1--44-77-1-2-1--44-77-1-2-1-------------|
|-----------------------------------------------------SLIDE>>>>--|
SE REPITE DOS VECES
Segundo intro ( esto es lo de violines )
|--4-----------4-------|-------4---------------------------------|
|----7-6-4-6-7---6-----|---6-7---4---7-6-7-4---------------------|
|------------------6-3-|-----------6-----------------------------|
|----------------------|-----------------------------------------|
|----------------------|-----------------------------------------|
|----------------------|-----------------------------------------|
Esto es el segundo intro en guitarra
|----------------------------------------------------------------|
|----------------------------------------------------------------|
|--6666------------------6666-3333-------------------------------|
|--6666-6666-3333-4444---6666-3333--4444-6666--------------------|
|--4444-6666-3333-4444---4444-1111--4444-6666--------------------|
|-------4444-1111-2222--------------2222-4444--------------------|
Verso ( bajo ) ( quisiera no ..)
|----------------------------------------------------------------|
|----------------------------------------------------------------|
|--4444-------------------4444-1111------------------------------|
|-------4444-1111-2222---------------2222-4444-------------------|
Coro ( y ojala ..)
|----------------------------------------------------------------|
|----------------------------------------------------------------|
|--------------6666-3333------------6666-3333--------------------|
|--4444--6666--6666-3333-4444-6666--6666-3333--------------------|
|--4444--6666--4444-1111-4444-6666--4444-1111--------------------|
|--2222--4444------------2222-4444-------------------------------|
|----------------------------------------------------------------|
|----------------------------------------------------------------|
|--------------7-6-5-3-------------------------------------------|
|--4444--6666--7-6-5-3-44444-6-----------------------------------|
|--4444--6666--5-4-3-1-44444-6-----------------------------------|
|--2222--4444----------22222-4-----------------------------------|
Despues Segundo intro
Despues Verso
( la guitarra empieza en el verso con esto )
|----------------------------------------------------------------|
|----------------------------------------------------------------|
|--6666-----------------6666-3333--------------------------------|
|--6666-6666-3333-4444--6666-3333--4444-6666---------------------|
|--4444-6666-3333-4444--4444-1111--4444-6666---------------------|
|-------4444-1111-2222-------------2222-4444---------------------|
Despues Coro
Interlude
|-------------------------------------------------------------------|
|-------------------------------------------------------------------|
|--66-6-33-3-------------66-6-33-3--------------66-6-33-3-----------|
|--66-6-33-3-44-4-88-66--66-6-33-3--44-4-88-66--66-6-33-3-44-4-88-66|
|--44-4-11-1-44-4-88-66--44-4-11-1--44-4-88-66--44-4-11-1-44-4-88-66|
|------------22-2-66/44-------------22-2-66/44------------22-2-66/44|
|----------------------------------------------------------------|
|----------------------------------------------------------------|
|----------------------------------------------------------------|
|--5555555555----------------------------------------------------|
|--5555555555----------------------------------------------------|
|--3333333333----------------------------------------------------|
P.M----------
Despues Coro
Despues Verso por 3
(En la segunda ves que toques el verso tocas el
intro con violines)
Despues Este Cambio
|----------------------------------------------------------------|
|----------------------------------------------------------------|
|--6666-----------------6666-------------------------6>>>--------|
|--6666-6666-3333-4444--6666-6666-3333-4444----------6>>>--------|
|--4444-6666-3333-4444--4444-6666-3333-4444----------4>>>--------|
|-------4444-1111-2222-------4444-1111-2222----------------------|
P.M -------------------
FIn
Esta es una cancion de panda que esta muy chida
yo creo que esta muy bien disfrutenla
Alguna duda sugerencia lo que sea mandenme
[email protected]




Ваше мнение



Капча