Solo:
------------------------------------------------------------------------------
-/7-10---7-5-----/7-5--/7-10---7-5---11-11-10-8--/7-10---7-5---11-11-/14------
-------9-----7-7-------------9-----7-------------------9-----7----------------
------------------------------------------------------------------------------
------------------------------------------------------------------------------
------------------------------------------------------------------------------


-------------------------------------------11-11-11-119-9-9------------------
-------13-14-------13-14-------13-14------------------------------------------
-12-10-------12-10-------12-10-------12-10------------------------------------
------------------------------------------------------------------------------
------------------------------------------------------------------------------
------------------------------------------------------------------------------




Ваше мнение



Капча