Titulo: Gripa Mundial
Artista: Panda
Album: Arroz con leche

Esta es una саnсiуn que esta bien раsаdнsimа de wevos, аsн que disfrutenla!!!

a= GUITARRA 1
b= GUITARRA 2
:
#INTRO a# 2 VECES
e------------------------------------------------------|
B----------------------------------------7-7-7-7-6-----|
G-----4-3-6-4-3-------3-------3---4-3-6------------6---|
D---4-----------6-6-6---6-4-4---4----------------------|
A------------------------------------------------------|
E------------------------------------------------------|
:
#INTRO b# 2 VECES
e------------------------------------------------------|
B------------------------------------------------------|
G---------------6-6-6-6-6-6-------------4-4-4-6-6-6----|
D---4-4-4-4-4-4-6-6-6-6-6-6-4-4-4-4-4-4-4-4-4-6-6-6----|
A---4-4-4-4-4-4-4-4-4-4-4-4-4-4-4-4-4-4-2-2-2-4-4-4----|
E---2-2-2-2-2-2-------------2-2-2-2-2-2----------------|
:
#VERSO a&b# 2 VECES SIN DIST. (ESTILO SKA)
e---2-2-2-2-2-2-4-4-4-4-4-4-2-2-2-2-2-2-2-2-2-4-4-4----|
B---2-2-2-2-2-2-4-4-4-4-4-4-2-2-2-2-2-2-2-2-2-4-4-4----|
G---3-3-3-3-3-3-6-6-6-6-6-6-3-3-3-3-3-3-4-4-4-6-6-6----|
D---4-4-4-4-4-4-6-6-6-6-6-6-4-4-4-4-4-4-4-4-4-6-6-6----|
A---4-4-4-4-4-4-4-4-4-4-4-4-4-4-4-4-4-4-2-2-2-4-4-4----|
E---2-2-2-2-2-2-------------2-2-2-2-2-2----------------|
:
TOKAS EL #INTRO a&b# 1 VEZ
DESPUES EL #VERSO a&b# OTRAS 2 VECES
:
#CORO a&b# 4 VECES CON DIST.
e------------------------------|
B------------------------------|
G---------3-3-3-4-4-4-6-6-6----|
D---4-4-4-3-3-3-4-4-4-6-6-6----|
A---4-4-4-1-1-1-2-2-2-4-4-4----|
E---2-2-2----------------------|
:
TOKAS EL #VERSO a&b# 2 VECES
:
#PRE-CORO a&b# 2 VECES CON DIST.
e------------------------------|
B------------------------------|
G---8-8-8-6-6-6-4-4-4-3-4-6----|
D---8-8-8-6-6-6-4-4-4-3-4-6----|
A---6-6-6-4-4-4-2-2-2-1-2-4----|
E------------------------------|
:
#CORO a&b# 4 VECES CON DIST.{ LA 4TA VEZ}
e---------------------------|-----------|
B---------------------------|-----------|
G---------5-5-5-6-6-6-8-8-8-|-----------|
D---6-6-6-5-5-5-6-6-6-8-8-8-|-----4-----|
A---6-6-6-3-3-3-4-4-4-6-6-6-|-----4-----|
E---4-4-4-------------------|-----2-----|
:
#PUENTE a# 4 VECES SIN DIST.
e------------------------------------------------------|
B---------------------7-7-6-----------------------7----|
G---------6-4---4-4-4-------------6-4---4-4-4-6-6------|
D---4-4-4-----6-------------4-4-4-----6----------------|
A------------------------------------------------------|
E------------------------------------------------------|
:
#PUENTE b# 4 VECES SIN DIST.
e---2-2---2-2---4-4---4-4---2-2---2-2---2-2---4-4------|
B---2-2---2-2---4-4---4-4---2-2---2-2---2-2---4-4------|
G---3-3---3-3---6-6---6-6---3-3---3-3---4-4---6-6------|
D---4-4---4-4---6-6---6-6---4-4---4-4---4-4---6-6------|
A------------------------------------------------------|
E------------------------------------------------------|
:
#PRE-CORO a&b# 4 VECES CON DIST.
e------------------------------|
B------------------------------|
G---8-8-8-6-6-6-4-4-4-3-4-6----|
D---8-8-8-6-6-6-4-4-4-3-4-6----|
A---6-6-6-4-4-4-2-2-2-1-2-4----|
E------------------------------|
:
TOKAS EL #INTRO a&b# 4 VECES
:
FIN!




Ваше мнение



Капча