.-=INTRO=-.
(primeras dos veces limpio y sin riff, las siguientes veces con distorcion y riff)
e--------------------------------------------------||
B--------------------------------------------------||
G---6-6-6-6-6-6-6-6--------------------------------||
D---6-6-6-6-6-6-6-6-----4-4-4-4-----6-6-6-6--------||
A---4-4-4-4-4-4-4-4-----4-4-4-4-----6-6-6-6--------||
E-----------------------2-2-2-2-----4-4-4-4--------||
(riff)
e--------------------------------------------||------
B-------6-------6-----------6-------7-6-4-6--||------
G-----6---6---6---6-------6---6--------------||--6~--
D---6-------6-----------4--------------------||------
A--------------------------------------------||------
E--------------------------------------------||------
.-=VERSO=-.
(Bajo)
la vi por vez primera....
(Guitarra entra)
vestia falda a cuadros...
Mismo acordes de intro con este riff. (dos veces)
e--------------------------------------------||------
B-6b7-7-7-7-7-7--4------6b7-7-7-7-7-7--4--6--||------
G-------------------6------------------------||--6~--
D--------------------------------------------||------
A--------------------------------------------||------
E--------------------------------------------||------
e----------------------------------------------------||
B----------------------------------------------------||
G--------------------------------------------------6~||
D-x-x-4-x-x-4-x-x-4-x-x-4-x-x-6-x-x-6-x-x-6-x-x-6--6~||
A-x-x-4-x-x-4-x-x-4-x-x-4-x-x-6-x-x-6-x-x-6-x-x-6--4~||
E-x-x-2-x-x-2-x-x-2-x-x-2-x-x-4-x-x-4-x-x-4-x-x-4----||
se repite verso
(bajo)
eramos solo...
(guitarra entra)
entonces me sorprendi...
en el vaticano...
e----------------------------------------------------||
B----------------------------------------------------||
G----------------------------------------------------||
D-x-x-4-x-x-4-x-x-4-x-x-4---6-6-6-6-6-6-6-6----------||
A-x-x-4-x-x-4-x-x-4-x-x-4---6-6-6-6-6-6-6-6----------||
E-x-x-2-x-x-2-x-x-2-x-x-2---4-4-4-4-4-4-4-4----------||
.-=CORO=-.
todavia veo...
e----------------------------------------------------||
B----------------------------------------------------||
G----6-6-6-6---5-5-5-5-------------------------------||
D----6-6-6-6---5-5-5-5---8-8-8-8---6-6-6-6-----------||
A----4-4-4-4---3-3-3-3---8-8-8-8---6-6-6-6-----------||
E------------------------6-6-6-6---4-4-4-4-----------||
hace tanto tiempo...
e----------------------------------------------------||
B----------------------------------------------------||
G----------------------------------------------------||
D-x-x-4-x-x-4-x-x-4-x-x-4-x-x-6-x-x-6-x-x-6-x-6------||
A-x-x-4-x-x-4-x-x-4-x-x-4-x-x-6-x-x-6-x-x-6-x-6------||
E-x-x-2-x-x-2-x-x-2-x-x-2-x-x-4-x-x-4-x-x-4-x-4------||
.-=PUENTE=-.
e--------------------------------------------------||
B--------------------------------------------------||
G---6-6-6-6-6-6-6-6--------------------------------||
D---6-6-6-6-6-6-6-6-----4-4-4-4-----6-6-6-6--------||
A---4-4-4-4-4-4-4-4-----4-4-4-4-----6-6-6-6--------||
E-----------------------2-2-2-2-----4-4-4-4--------||
(riff)
e--------------------------------------------||------
B-------6-------6-----------6-------7-6-4-6--||------
G-----6---6---6---6-------6---6--------------||--6~--
D---6-------6-----------4--------------------||------
A--------------------------------------------||------
E--------------------------------------------||------
.-=VERSO=-.
lo mismo de arriba
.-=CORO=-.
los mismos acordes
.-=OUTRO=-.
e--------------------------------------------------||
B--------------------------------------------------||
G---6-6-6-6-6-6-6-6--------------------------------||
D---6-6-6-6-6-6-6-6-----4-4-4-4-----6-6-6-6--------||
A---4-4-4-4-4-4-4-4-----4-4-4-4-----6-6-6-6--------||
E-----------------------2-2-2-2-----4-4-4-4--------||
(riff)
e--------------------------------------------||------
B-------6-------6-----------6-------7-6-4-6--||------
G-----6---6---6---6-------6---6--------------||--6~--
D---6-------6-----------4--------------------||------
A--------------------------------------------||------
E--------------------------------------------||------
ESTA CANCION ESTA CHINGONA..... [email protected]




Ваше мнение



Капча