Panda - el gran mcgee
Tabbed By: Gerardo Izurieta
EMail: [email protected]
intro y verso
asi es en todos los versos y en el solo de guitarra
---------------------------------------
----------------------------------------
-------666---------------------------
---44--666--888--999--------------
---44--444--888--999--------------
---22-------666--777--------------
coro
-----------------------------------------
-----------------------------------------
-------66--88--666-------------------
---44--66--88--666-------------------
---44--44--66--444-------------------
---22------------------------------------
antes del solo
------------------------------------------
------------------------------------------
------------------------------------------
----66--8--9----------------------------
----66--8--9----------------------------
----44--6--7----------------------------
en el ultimo coro aumenta un tono
------------------------------------------
------------------------------------------
------88--1010--88-------------------
--66--88--1010--88-------------------
--66--66---8-8--66-------------------
--44-------------------------------------




Ваше мнение



Капча