En el intro se usan los mismos acordes del verso

Intro
|-11--9-9--8-8--8-9-8---11--9-9--8-8--8-------|
|---------------------------------------11----|
|---------------------------------------------|
|---------------------------------------------|
|---------------------------------------------|
|---------------------------------------------|
|-11-9-9-8-8-8-9-8-----8-8--9-9--9-8----|
|-------------------11------------------|
|---------------------------------------|
|---------------------------------------|
|---------------------------------------|
|---------------------------------------|
Estos son los acordes que se usan cuando estб cantando
G# C# A# D#
|------------------|
|------------------|
|-----6-------8----|
|-6---6---8---8----|
|-6---4---8---6----|
|-4-------6--------|
Aquн es cuando canta ' oye oli dime que voy a hacer'
Y en este mismo pedazo se va la rola mбs rapida con estos mismos acordes

G# C# D#
|--------------|
|--------------|
|-----6---8----|
|-6---6---8----|
|-6---4---6----|
|-4------------|
Esta parte es cuando se calma la rola, cuando no lleva distorciуn
G# C# A# D#
|---------------------------------------------------------------|
|---------4--------------6--------------6--------------8--------|
|-----------5--------6-----6--------------7--------8-----8------|
|-----6-------6----6---------6------8-------8----8---------8----|
|---6------------4-----4----------8------------6-----6----------|
|-4-----4-----------------------6-----6-------------------------|
despues de que canta se oye algo asн
esto lo hace la guitarra 2
|-11-12-----11-12-14----|
|-------12--------------|
|-----------------------|
|-----------------------|
|-----------------------|
|-----------------------|
Con estos acordes acaba la rola
G# C# A# D#
|------------------|
|------------------|
|-----6-------8----|
|-6---6---8---8----|
|-6---4---8---6----|
|-4-------6--------|
Esta rola es de las mas chidas de la revancha del prнncipe charro solo
renecesita un pedal con distor esta rola se oye chingo alguna duda micorreo
es [email protected]
Para toda la banda de punketos de Acapulco




Ваше мнение



Капча