Ya mande el tab de bajo ahora el de guitarra, el unico
Problema es que no pude sacar la 2Є guitarra si alguien
la sabe que me la mande.

Verso
Guitarra 1
e--------------------------------------------
b--------------------------------------------
g--777-----------7/9-7-----------------------
D--777--555--999-7/9-7-----------------------
A--555--555--999-5/7-5-----------------------
E-------333--777-----------------------------

e---------------------------------------
b---------------------------------------
g--777----------------------------------
D--777--555--999--777-------------------
A--555--555--999--777-------------------
E-------333--777--555-------------------

Coro
e-----------------------------------------------
b-----------------------------------------------
g------------------77-7-77--7-99-1111-1212------
D--55-5-55-99-9-99-77-7-77--7-99-1111-1212------
A--55-5-55-99-9-99-55-5-55--5-77-9-9--1010------
E--33-3-33-77-7-77------------------------------

la ultima vez se toca asi

e-------------------------------------------
b-------------------------------------------
g------------------77-7-77--7-1111-99-7-----
D--55-5-55-99-9-99-77-7-77--7-1111-99-7-----
A--55-5-55-99-9-99-55-5-55--5--9-9-77-5-----
E--33-3-33-77-7-77--------------------------

eso es todo el unico pedo es que no he sacado la 2Є
guitarra
ojala y les sirva.




Ваше мнение



Капча