Artist :P.O.D
Song :Will You
Tabbed by :Peter ([email protected])
[email protected]-----

Intro/Chorus
D|-----------------------------------------
A|-----------------------------------------
F|-11111111--14141414---11111111--14141414-
C|-----------------------------------------
G|-9-9-9-9---12121212---9-9-9-9---12121212-
D|---------------------10101010------------

-------------------------------|
-------------------------------|
--------------------7776-------|
-10-10101010-------------7-----|
-10-10101010---------------7---|
-8--8-8-8-8----5---------------|

Verse
D|-------------------------------------------------------|
A|-------------------------------------------------------|
F|-------------------------------------------------------|
C|--999999-------555555------------999999--------777779--|
G|--777777--7-9--333333-5-7--7777--------7--7777---------|
D|---------------------------5555-----------5555---------|

Bridge
D|----------------------------------------------------|
A|----------------------------------------------------|
F|----------------------------------------------------|
C|--10-10101010-10-10101010-10-10101010-10-10101010---|
G|--8--8-8-8-8--8--8-8-8-8--8--8-8-8-8--8--8-8-8-8----|
D|----------------------------------------------------|x1


D|----0---------------0----0----|
A|----0---------------0----0----|
F|----9---------------5----6----|
C|----9---------------5----7----|
G|-7-------52---2-3------7----|
D|-------7------3--------5------|x3

Verse without distortion x2
Verse

End
D|---------------------------------------------------------|
A|---------------------------------------------------------|
F|--11-11--11-11--11-11--11-11-----------------7-6-----7-6-|
C|---x--x--x--x----x--x---x--x-----------------------------|
G|--9--9---9--9----9--9---9--9----1010-1010----------------|
D|----------------10-10--10-10----8-8--8-8---5-------5-----|x2


D|---------|
A|---------|
F|----11~--|
C|---------|
G|----9~---|
D|---------|

I think this tab is correct, except bridge which is different as in song but
is near to original.Thanks




Ваше мнение



Капча