Artist :P.O.D
Song :Wildfire
Tabbed by :Peter ([email protected])
[email protected]-----


Intro/pre-chorus 1
D |---------------------------------|------|-----|
A |---------------------------------|------|-----|
F |--111111-7-7-7--7----10101010--8-|------|-----|
C |--9-9-9--5-5-5--7----8-8-8-8---8-|------|-----|
G |--9-9-9--5-5-5--5----8-8-8-8---6-|---6--|---6-|
D |----------------5--------------6-|-6--8-|-6---|
p.m * *

Verse
D |--------------------------|
A |--------------------------|
F |--------------------------|
C |--8-8888-------8-8888-----|
G |--8-8888---5---8-8888---6-|
D |--6-6666-------6-6666-----|
p.m * *** * ***
5 and 6 with volume swell

Pre chorus 2
D |--------------------------------------------------|
A |--------------------------121212-1212-------------|
F |--111111-1111-7-7-7--7-7--9-9-9--9-9--111111-1111-|
C |--9-9-9--9-9--5-5-5--5-5--9-9-9--9-9--9-9-9--9-9--|
G |--9-9-9--9-9--5-5-5--5-5--------------9-9-9--9-9--|
D |--------------------------------------------------|

chorus
D |----------------------------------------------------
A |-----------------------------------1212121212121212-
F |-1111111111111111-7-7-7-7-7-7-7-7--9-9-9-9-9-9-9-9--
C |-9-9-9-9-9-9-9-9--5-5-5-5-5-5-5-5--9-9-9-9-9-9-9-9--
G |-9-9-9-9-9-9-9-9--5-5-5-5-5-5-5-5-------------------
D |----------------------------------------------------

--------------------|
--------------------|
--1111111111111111--|
--9-9-9-9-9-9-9-9---|
--9-9-9-9-9-9-9-9---|
--------------------|

Bridge
D |-----------------------------------------------------------|
A |-----------------------------------------------------------|
F |-------11-9-11-------11-9-11----9--11-9-11-----9-11----9-9-|
C |-----9-------------9----------9--------------9-------9-----|
G |---9------------12-----------------------------------------|
D |-----------------------------------------------------------|

End
D |------------------|
A |------------------|
F |--111111-7-7-7--7-|
C |--9-9-9--5-5-5--7-|
G |--9-9-9--5-5-5--5-|
D |----------------5-|




Ваше мнение



Капча