i just have the verse and chorus riffs. C tuning i believe.
/= slide up
= slide down
h= hammer on
p= pull off
.= palm mute
Intro/Chorus riff
D -------------------------------------------------------------------/
A -------------------------------------------------------------------/
F 14-14-14-14-------14-14-14-14-------9-9-9-9-------9-9-9-9---------/
C 14-14-14-14-------14-14-14-14-------9-9-9-9-------9-9-9-9---------/
G 12-12-12-12-------12-12-12-12-------7-7-7-7-------7-7-7-7---------/
D 13-13-13-13-------12-12-12-12-------8-8-8-8-------8-8-8-8---------/
Verse riff
D --------------------------------------------------------|
A --------------------------------------------------------|
F --------------------------------------------------------|
C --------2h3p2p0---------2h3p2p0---------2h3p2p0---------|
G 3-3-3-3---------3-3-3-3---------2-2-2-2---------2-2-2-2-|
D 1-1-1-1---------1-1-1-1---------0-0-0-0---------0-0-0-0-|
. . . . . . . . . . . . . . . .
I'm just going to show the riff going from the chorus on the 2 strings that use it.
Riff before chorus
A -------------------------------------------12-----------------------|
F 12-12-12-12-12---14---12-12-12-12-12---14-----12-12-12-12-12---14---|
A ------------15--14--10--12-----/
F 12h14p12h14-----------------12-/
That's all i got. just remember it'll be a whole step higher than the cd if you
tuned you guitar to C tuning.
Christ is King!




Ваше мнение



Капча