SONG: Tribal
BAND: P.O.D.
ALBUM: The Fundamental Elements of Southtown
TRANSCRIBED BY: Josh Brown ([email protected])
TUNING: drop d (D,A,D,G,B,E)
() = palm mute
INTRO:
|-------------|
|-------------|
|-5-------5---|
|-5-0-----5-0-|
|-3-0-----3-0-|
|---0-------0-|
|---|
|---|
|---|
|-2-|
|-2-|
|-2-|
RIFF A: (chorus)
|-----------------------------------------------------------------|
|-----------------------------------------------------------------|
|---------------------------------5-5-5-5-5-5-5-5-----------------|
|-2-2-2-2-2-2-2-2-2-2-2-2-3-3-0-0-5-5-5-5-5-5-5-5-5-5-5-5-5-5-5-5-|
|-2-2-2-2-2-2-2-2-2-2-2-2-3-3-0-0-3-3-3-3-3-3-3-3-5-5-5-5-5-5-5-5-|
|-2-2-2-2-2-2-2-2-2-2-2-2-3-3-0-0-----------------5-5-5-5-5-5-5-5-|
RIFF B:
|--------------2-2-2-2-3-----|
|----0--3------2-2-2-2-3-3-3-|
|----------------------------|
|-2--------------------------|
|----------------------------|
|----------------------------|
RIFF C:
|----------------------------|
|----0--3----------0-3---0-3-|
|----------------------------|
|-2--------------2-----2-----|
|----------------------------|
|----------------------------|
RIFF D:
|----------------------------|
|----------------------------|
|----------------------------|
|-(2-0-2---3--3-5-5-5-0-0-0)-|
|-(2-0-2---3--3-5-5-5-0-0-0)-|
|-(2-0-2---3--3-5-5-5-0-0-0)-|
RIFF E:
|-----------------|
|-----------------|
|-----------------|
|-2-----3---5---0-|
|-2-----3---5---0-|
|-2-----3---5---0-|




Ваше мнение



Капча