-------------------------------------------------------------------------------
The Reasons - P.O.D.
-------------------------------------------------------------------------------
Tabbed By : jman04
e-mail: [email protected]
Tuning:dropped D
Intro
G|-------------------------------------------------------------------|
D|-------------------------------------------------------------------|
A|--3--0-------------------------------------------------------------|
D|---------1---------------------------------------------------------|
verses
G|-------------------------------------------------------------------|
D|-------------------------------------------------------------------|
A|------------11-----------------------------------------------------|
D|-000333----5555----------------------------------------------------|
chorus
G|-------------------------------------------------------------------|
D|-------------------------------------------------------------------|
A|---11111111-1111-3-------------------------------------------------|
D|----------------------------00000023-20-23-------------------------|
bridge
G|-------------------------------------------------------------------|
D|-------------------------------------------------------------------|
A|----1-0------------1-0-----33--------------------------------------|
D|-0--0---0313-0--0---03---------------------------------------------|
Outro
G|-------------------------------------------------------------------|
D|-------------------------------------------------------------------|
A|-------1----------1------------------------------------------------|
D|--0--------0-------------------------------------------------------|
Song Structure:
Intro x1
Verses x8
chorus x4
verses x8
chorus x4
bridge x8
chorus x8
outro x1
note:on the bridge for this song, try and give a raggae rythim to it.
so there you go.....enjoy




Ваше мнение



Капча