Tabbed by:THE SANDMAN
Email:[email protected]
Tuning:dgcfad
|-5---5--5-5-5-5-5--------0-0-0-0--0-0-0------------------------------------|
|-7---7--7-7-7-7-7--------2-2-2-2--2-2-2------------------------------------|
|---------------------------------------------------------------------------|
|---------------------------------------------------------------------------|
|---------------------------------------------------------------------------|
|---------------------------------------------------------------------------|
|5-5-5-5-5-5-5---7----------------------------------------------------------|
|7-7-7-7-7-7-7---9----------------------------------------------------------|
|---------------------------------------------------------------------------|
|---------------------------------------------------------------------------|
|---------------------------------------------------------------------------|
|---------------------------------------------------------------------------|
|---------------------------------------------------------------------------|
|---------------------------------------------------------------------------|
|---------------------------------------------------------------------------|
|----------4-4-4-4-4-4-4-4-4-4-4--7-7-7-7-7-7-7-7-7-7-7---------------------|
|----------4-4-4-4-4-4-4-4-4-4-4--7-7-7-7-7-7-7-7-7-7-7---------------------|
|0-2-4-2-0-2-2-2-2-2-2-2-2-2-2-2--5-5-5-5-5-5-5-5-5-5-5---------------------|
|---------------------------------------------------------------------------|
|---------------------------------------------------------------------------|
|---------------------------------------------------------------------------|
|-2-2-2-2-2-2-2-2-2-2-2-2-2-2--------------4~-------------------------------|
|-2-2-2-2-2-2-2-2-2-2-2-2-2-2--------------4~-------------------------------|
|-0-0-0-0-0-0-0-0-0-0-0-0-0-0--0-2-4-2-0---2~-------------------------------|

|---------------------------------------------------------------------------|
|---------------------------------------------------------------------------|
|------54---------54--------------------------------------------------------|
|-4-4-----54--7-7----54--etc,,----------------------------------------------|
|-4-4---------7-7-----------------------------------------------------------|
|-2-2---------5-5-----------------------------------------------------------|




Ваше мнение



Капча