P.O.D-Southtown
Intro:
e|------------------------------------------------------------------------|
B|------------------------------------------------------------------------|
G|------------------------------------------------------------------------|
D|--2--2--2--2----------------------------------------2--2--2--2----------|
A|--0--0--0--0---0--0--0--0--0--0--0--0--0--0--0--0---0--0--0--0----------|
E|---------------3--3--3--3--3--3--3--3--3--3--3--3-----------------------|
e|------------------------------------------------------------------------|
B|------------------------------------------------------------------------|
G|------------------------------------------------------------------------|
D|------------------------------------------------------------------------|
A|--0--0--0--0--0--0--0--0--0--0--0--0------------------------------------|
E|--0--0--0--0--0--0--0--0--0--0--0--0------------------------------------|
x4
Riff 1:
e|------------------------------------------------------------------------|
B|------------------------------------------------------------------------|
G|------------------------------------------------------------------------|
D|--3-3-3--3--3-3-3----7-7-7-7----0-0-0--0--0-0-0----7-7-7-7--------------|
A|--3-3-3--3--3-3-3----7-7-7-7----0-0-0--0--0-0-0----7-7-7-7--------------|
E|--3-3-3--3--3-3-3----7-7-7-7----0-0-0--0--0-0-0----7-7-7-7--------------|
x6
Riff 2:
e|-------6--5-------------------------------------------------------------|
B|-------6--5-------------------------------------------------------------|
G|-------3--2-------------------------------------------------------------|
D|-------3--2-------------------------------------------------------------|
A|------------------------------------------------------------------------|
E|--0---------------------------------------------------------------------|
Riff 3:
e|------------8-8-8------------------5-5-5--------------------------------|
B|------------8-8-8------------------5-5-5--------------------------------|
G|------------5-5-5----x2------------2-2-2--x2----------------------------|
D|--3-3-3-----5-5-5----------0-0-0---2-2-2--------------------------------|
A|--3-3-3--------------------0-0-0----------------------------------------|
E|--3-3-3--------------------0-0-0----------------------------------------|
x4
Riff 4:
e|----5-6----5-6----5-----------------------------------------------------|
B|----5-6----5-6----5-----------------------------------------------------|
G|----2-3----2-3----2-----------------------------------------------------|
D|----2-3----2-3----2-----------------------------------------------------|
A|------------------------------------------------------------------------|
E|--0------0------0-------------------------------------------------------|
x7
Riff 5:
e|------------------------------------------------------------------------|
B|------------------------------------------------------------------------|
G|------------------------------------------------------------------------|
D|------------------------------------------------------------------------|
A|-0-2-3--0-2-3---x-x-x---------------------------------------------------|
E|-0-2-3--0-2-3---x-x-x---------------------------------------------------|
repeat as much as needed
Outro: play riff 1 once, then play:
e|------------------------------------------------------------------------|
B|------------------------------------------------------------------------|
G|------------------------------------------------------------------------|
D|---3-3-3--3--3-3-3--7-7-7---0-0-0--0--0-0-0-----------------------------|
A|---3-3-3--3--3-3-3--7-7-7---0-0-0--0--0-0-0-----------------------------|
E|---3-3-3--3--3-3-3--7-7-7---0-0-0--0--0-0-0-----------------------------|
The order it goes in is:
Intro
Riff 1
Riff 2
Riff 3
Riff 1
Riff 2
Riff 3
Riff 4
Riff 5
Riff 1
Riff 3
Outro
You can listen to it and tell how many times you play each.
Thats about it, any questions, comments or corrections, e-mail me at [email protected]




Ваше мнение



Капча