POD
Southtown
Tabbed by Phil Rucker
[email protected]
www.angelfire.com/pa3/Philorf/index.html

Drop the E string to a D for this song.

Intro/Verse (Different Rhythms, easy to figure out)

D:7-7-7-7-3-3-3-3-3-3-3-3-3-3-3-3-7-7-7-7-0-0-0-0-0-0-0-0-0-0-0-0
A:7-7-7-7-3-3-3-3-3-3-3-3-3-3-3-3-7-7-7-7-0-0-0-0-0-0-0-0-0-0-0-0
D:7-7-7-7-3-3-3-3-3-3-3-3-3-3-3-3-7-7-7-7-0-0-0-0-0-0-0-0-0-0-0-0

Intro To Chorus

D:----------------
A:---8-7-------
D:0-----------

Chorus

D:-----5-5-5-5------5-5-5-5-------2-2-2-2 ------2-2-2-2
A:3-3-----------3-3-----------0-0------------0-0-----------
D:3-3-----------3-3----------0-0-------------0-0----------

D:----------------------------- D:------------------------
A:--8-7----------------------- x 2 Then A:-7-8-7-8---7---------
D:0---------------------------- D:0----0------0---------

Bridge

D:0-2-3-0-2-3-0-2
A:0-2-3-0-2-3-0-2
D:0-2-3-0-2-3-0-2

I think that's all good. If ya wanna change anything, email me. [email protected]




Ваше мнение



Капча