Snuff the Punk
Artist: P.O.D
Album: Snuff The Punk

Dropped-D tuning /W Heavy Distortion
Intro/Verse 1:

|-------9----7----4---|
|-------9----7----4---|
|---------------------|
|--0-0----0-----0-----|
|--0-0----0-----0-----|
|--0-0----0-----0-----|

Verse 1 (cont.):
|---------------------|
|---------------------|
|---------------------|
|---------------------|
|---------------------|
|-11---14--15--14--11-|

Verse 2: First variation
|-9--4--0--4----------|
|---------------------|
|---------------------|
|---------------------|
|---------------------|
|---------------------|

Verse 2: Second variation
|-9--4--0--1----------|
|---------------------|
|---------------------|
|---------------------|
|---------------------|
|---------------------|

Verse 3:
|-------9----7----4---|
|-------9----7----4---|
|---------------------|
|--0-0----0-----0-----|
|--0-0----0-----0-----|
|--0-0----0-----0-----|

Outro

I'm still workin' on the outro! God luvs u!




Ваше мнение



Капча