h-hammer on
p-pull off
b-bend
x-ghost or muted note
()harmonic
~~~~vibrato
c-play clean
intro-
E-------------------------------------------------------------------------------
B-------------------------------------------------------------------------------
G-----x--7h9p7h9p7h9p7h9p7-9b-------------------x-5h7p5h7p5h7p5-----------------
D----x-------------------------x-5h7p5h7p5h7p5-x--------------------------------
A-----------------------------x-------------------------------------------------
E-------------------------------------------------------------------------------
Play tres times
Verse-
E---10-10-10-10-10-10-10-10-10----------7-7-7-7-----
B---10-10-10-10-10-10-10-10-10--7-7-7-7-7-7-7-7-----
G---10-10-10-10-10-7--7--7--7---7-7-7-7-7-7-7-7-----
D-x-7--7--7--7--7--7--7--7--7---7-7-7-7-5-5-5-5-----
A-------------------------------5-5-5-5-------------
E---------------------------------------------------
Chorus-Im not sure but it seems like they are just picking notes out of the
I and II chords of the verse.
Solo-
E----------------------------------------------------------------------
B--9-10-10-10~~~~10-8-6-5-6/8~~~~8h9p8h9p86-8-10-10b~~~10-8-6-5-6/8~~~
G----------------------------------------------------------------------
D----------------------------------------------------------------------
A----------------------------------------------------------------------
E----------------------------------------------------------------------
E----------------------------------------------------------------------
B--8h9p8h9p83-8h10p8h10p8-6h8p6h8p6-4h6p4h6p4-2h4p2h4p2---------------
G--------------------------------------------------------2h4p2h4p2-----
D-------------------------------------------------------------------2--
A----------------------------------------------------------------------
E----------------------------------------------------------------------
The outro is the same chords played in the verse except on a cleaner effect and
a different rhythm. Listen to the song and figure it out.
$$$$$




Ваше мнение



Капча