Title: Set it Off
Band: P.O.D.
Album: Satellite
Tuning: Dropped C (CGCFAd)
Tabbed by: [email protected]
--------------------------------
| h - hammer on / - slide up |
| \ - slide down |
--------------------------------
Intro
d|----------------------------------------------------------------
A|----------------------------------------------------------------
F|-7-7-7-7-7----7-7-7-7-7-----------------------------------------
C|-7-7-7-7-7-0--7-7-7-7-7-0--3-3-3-3-3-h-5-5-5-5\2-2-2-2-h-3-3-3--
G|-5-5-5-5-5-0--5-5-5-5-5-0--3-3-3-3-3-h-5-5-5-5\2-2-2-2-h-3-3-3--
C|-----------0------------0--3-3-3-3-3-h-5-5-5-5\2-2-2-2-h-3-3-3--
Verse
d|----------8-----8------|---------------------------
A|-----6-5----7-----7----|--------6--5--5-6---5-6----
F|---7----------6-----6--|------7-----------7-----7--
C|-5---------------------|----7----------------------
G|-----------------------|--5------------------------
C|-----------------------|---------------------------
2x 2x
Pre-chorus
d|-------------------
A|-------------------
F|-------------------
C|---0------------0--
G|------0--0--0--0---
C|-0---1--3--5--7----
2x
Chorus
d|-----------------------------------|---------------------------------------------------
A|-----------------------------------|---------------------------------------------------
F|-----------------------------------|---------------------------------------------------
C|-0--0-3-0----0--0-3-0----0--0-3-0--|--0--0-3-0----0--0-3-0----0--0-3-0----0--0-3-0--3--
G|-0--0-3-0----0--0-3-0----0--0-3-0--|--0--0-3-0----0--0-3-0----0--0-3-0----0--0-3-0-----
C|-0--0-3-0----0--0-3-0----0--0-3-0--|--0--0-3-0----0--0-3-0----0--0-3-0----0--0-3-0-----
Solo
d|--------------------------------------------------------/13--/12--/8--
A|----------------------------------------------------------------------
F|----------------------------------------------------------------------
C|-0--------------------------------------------------------------------
G|-0----5--7--8--7\3---7-8----7-8----7-8----5--7--8--7\3----------------
C|-0-----------------------10-----10------------------------------------
Bridge
d|-----------------------------------------------
A|-----------------------------------------------
F|----------------------------------9-9-9--9-9-9--
C|-0--1-3-5-7-7-7-7-7-7-7--0--1-3-5---------------
G|-0--1-3-5-7-7-7-7-7-7-7--0--1-3-5-7-7-7--7-7-7--
C|-0--1-3-5-7-7-7-7-7-7-7--0--1-3-5---------------
2x
Chorus 2 (clean)
d|----------------------------------------
A|----------------------------------------
F|----------------------------------------
C|-0--0-3-0----0--0-3-0----0--0-3-0----0--
G|-0--0-3-0----0--0-3-0----0--0-3-0----0--
C|-0--0-3-0----0--0-3-0----0--0-3-0----0--
Chorus B
d|--------------------------------------------------
A|--------------------------------------------------
F|--------------------------------------------------
C|-0--0-3-0----0--0-3-0----0--0-3-0--------------3--
G|-0--0-3-0----0--0-3-0----0--0-3-0-----------------
C|-0--0-3-0----0--0-3-0----0--0-3-0-----------------
d|--------------------------------------------------|-----
A|--------------------------------------------------|-----
F|--------------------------------------------------|-----
C|-0--0-3-0----0--0-3-0----0--0-3-0----0--0-3-0--3--|--0--
G|-0--0-3-0----0--0-3-0----0--0-3-0----0--0-3-0-----|--0--
C|-0--0-3-0----0--0-3-0----0--0-3-0----0--0-3-0-----|--0--
3x
Intro (4x)
Verse (2x)
Pre-chorus (2x)
Chorus
Verse (2x)
Pre-chorus (2x)
Chorus
Bridge
Chorus 2
Chorus B




Ваше мнение



Капча