Tabbed by: Jake Overdorff E-mail: [email protected]
Tuning: Standard Artist: P.O.D. Song:Selah

E------------------/-------------------------------------------
B------------------/-------------------------------------------
G--4-2-0-------2-0-/--4-2-2-2-2--2-0---------------------------
D---------2--------/----2-2-2-2-------4-4-4-4--4-2-0--0-0-0-0-2
A------------------/------------------4-4-4-4------------------
E------------------/-------------------------------------------
( / is being used^to divide.)
E-----repeat 3x then--------------------(drums)---------------
B-----repeat 3x then--------------------(drums)---------------
G-----repeat 3x then---4-4-4-4-4-4-4----(drums)---------------
D--4--repeat 3x then---4-4-4-4-4-4-4----(drums)---------------
A-----repeat 3x then--------------------(drums)---2-2-2-2--3--
E-----repeat 3x then--------------------(drums)---2-2-2-2--3--
Verse: ---------> Kick down the teeth^^^^^^^...
E-------------------------------------------------------------
B-------------------------------------------------------------
G-------------------------------------------------------------
D-------------------------------------------------------------
A---2-2-2-2---12-12-12-12---2-2-2-2--3---2-2-2-2--3-3-3-3-----
E---2-2-2-2-----------------2-2-2-2--3---2-2-2-2--3-3-3-3-----
Cowards be mock'n me^^^^^^^^^
E-------------------------------------------------------------
B-------------------------------------------------------------
G-------------------------------------------------------------
D-------------------------------------------------------------
A--2-2-2-2--3---2-2-2-2--12-12-12-12--2-2-2-2--3---2-2-2-2--3-
E--2-2-2-2--3---2-2-2-2---------------2-2-2-2--3---2-2-2-2--3-
There's no fear of Death^^^^^^^^
E-------------------------------------------------------------
B-------------------------------------------------------------
G-------------------------------------------------------------
D-------------------------------------------------------------
A--3-3-3---2---5--5-5--2222-4444-6666-7777-9999--2---5--5-5---
E--3-3-3---2---5--5-5----------------------------2---5--5-5---
Step up punks get rushed^^^^^^^^^^^^^^




Ваше мнение



Капча