#----------------------------------PLEASE NOTE---------------------------------#
#This file is the author's own work and represents their interpretation of the-#
#song. You may only use this file for private study, scholarship, or research.-#
#------------------------------------------------------------------------------#
P.O.D. - Seeking The Wise
Submitted By: Southtown Maniac
EMail: [email protected]
This is a really great song from the album Brown. I'm
sorry that I only got the first bit, but its my first
tab :).
Tuning: (Low to High) DGCFAD
()= Harmonics
PM= Palm Mute
= Slide Down
Intro #1:
D|----0----0---0---0---0---0---0---0---0---0---0---0
G|--5----5----5---8---8---8---7---7---7---3---3---3->x2
C|-----4-----4-------4---4-------4---4-------4---4--/
F|--------------------------------------------------
A|--------------------------------------------------
D|--------------------------------------------------
Intro #2:
D|-------------------------------------------|---(12)--
G|-------------------------------------------|---(12)--
C|-------------------------------------------|---(12)--
F|-------------------------------------------|---------
A|--2-5-7-9-12-11-7-4-2-4-10-9-5-2-0-2-4-5>x2|-2-------
D|-------------------------------------------|---------
last^time
Intro #3:
D|----------------0-0-----0-0---|----------------------
G|-----------------0-0-----0-0--|----------------------
C|------------------0-0-----0-0-|----------------------
F|--0-0-0-0---------------------|----------------------
A|--0-0-0-0-9-8-5--------4------|2-2-2-2--3--2-2-2-2--3
D|--0-0-0-0-7-6-3--------2------|0-0-0-0--1--0-0-0-0--1
PM....... PM....... PM.......
D|--------- ----------
G|--------- ----------
C|--------- ----------
F|--------- ----------
A|--2-2--3- x2 --5---94-
D|--0-0--1-/ --3---72-
PM...
Well thats it!
If you wanna get back to me about questions, comments,
or corrections, just e-mail me at:
[email protected]
[email protected]===============




Ваше мнение



Капча