SONG: Rock The Party (Off the Hook)
BAND: P.O.D.
ALBUM: The Fundamental Elements of Southtown
TRANSCRIBED BY: Josh Brown ([email protected])
TUNING: drop d (D,A,D,G,B,E)
VERSE:
|---------------------------------|
|---------------------------------|
|-----------------2-2-2-----------|
|-0-0-0-0-0-0-0-0-2-2-2-3-3-3-3-3-|
|-0-0-0-0-0-0-0-0-0-0-0-3-3-3-3-3-|
|-0-0-0-0-0-0-0-0-------3-3-3-3-3-|
CHORUS:
|---------------------------------------------------|
|---------------------------------10-10-10-10-10-10-|
|-7-7-7-7-7-7-7-7-7-7-7-7-7-7-7-7--x--x--x--x--x--x-|
|-x-x-x-x-x-x-x-x-x-x-x-x-x-x-x-x--7--7--7--7--7--7-|
|-5-5-5-5-5-5-5-5-5-5-5-5-5-5-5-5-------------------|
|---------------------------------------------------|
|-------------------------------|
|-------------------------------|
|-10-10-10-10-10-10-10-10-10-10-|
|--x--x--x--x--x--x--x--x--x--x-|
|--8--8--8--8--8--8--8--8--8--8-|
|-------------------------------|
FILL A:
|--------------------------|
|--------------------------|
|--------------------------|
|-0-0-0--0--0-0--0-0--0--0-|
|-0-0-0--0--0-0--0-0--0--0-|
|-0-0-0--0--0-0--0-0--0--0-|
FILL B:
|---------------------------------|
|---------------------------------|
|---------------------------------|
|-0-0-0-0-0-0-0-0-0-0-0-0-0-0-0-0-|
|-0-0-0-0-0-0-0-0-0-0-0-0-0-0-0-0-|
|-0-0-0-0-0-0-0-0-0-0-0-0-0-0-0-0-|




Ваше мнение



Капча