Song: Rock The Party (Off The Hook)
Artist: P.O.D.
Album: The Fundamental Elements of Southtown
Tabbed by: [email protected]
------------------
| / - slide up |
| - slide down |
------------------
Verse
E|--------------------------------------
B|--------------------------------------
G|--------------------------------------
D|-0-0-0-0-0-0-0-0---7-7-7---3-3-3-3-3--
A|-0-0-0-0-0-0-0-0---7-7-7---3-3-3-3-3--
D|-0-0-0-0-0-0-0-0---7-7-7---3-3-3-3-3--
Tag
E|------------------
B|------------------
G|------------------
D|-0-0-0-0-0-0-0-0--
A|-0-0-0-0-0-0-0-0--
D|-0-0-0-0-0-0-0-0--
Chorus
E|----------------------------------------------------------------------------------------
B|----------------------------------------------------------------------------------------
G|----------------------------------------------------------------------------------------
G|-7-7-7-7-7-7-7-7-7-7-7-7-7-7-7-7----14-14-14-14-14-14----10-10-10-10-10-10-10-10-10-10--
D|----------------------------------------------------------------------------------------
A|-5-5-5-5-5-5-5-5-5-5-5-5-5-5-5-5----12-12-12-12-12-12----8--8--8--8--8--8--8--8--8--8---
D|----------------------------------------------------------------------------------------
Bridge
E|-------------------|-----------------
B|-------------------|-----------------
G|-------------------|-----------------
D|-0-0--0-0----------|-0-0--0-0--------
A|-0-0--0-0----------|-0-0--0-0--------
D|-0-0--0-0--2/12--|-0-0--0-0--2/12--
7x
Verse 4x
Tag
Verse 4x
Chorus 4x
Verse 6x
Chorus 4x
Bridge
Chorus 4x
Verse 2x
-pause-
Verse 2x
Chorus 4x




Ваше мнение



Капча