Masterpeice Conspiracy - P.o.d.
Transcribed by Steven (Sickle) Waddington
1=d
2=A
3=F
4=C
5=G
6=C
for the intro/verse play these chords and notes with a delay.
Just listen out for them, it should be pretty clear
|---------------------------------------------------|
|--------------------------15-----------------------|
|---------------------------------------------------|
|-2-----------0-------------------------------------|
|-2-----------0-------------------------------------|
|-2-----------0-------------------------------------|
Chorus
I think the 5's are harmonics but i aint sure,
but you dont have to play it this way so dont
worry.
|---------------------------------------------------|
|---------------------------------------------------|
|---------------------------------------------------|
|-2-2-2-12----2-2-2-12---2-2-2-12---5-5-5-5-5-5-5---|
|-2-2-2-12----2-2-2-12---2-2-2-12-------------------|
|-2-2-2-12----2-2-2-12---2-2-2-12-------------------|
pm. . . . . . . . . . . . . . . .
Verse
|---------------------------------------------------|
|--------------------------15-----------------------|
|---------------------------------------------------|
|-2-----------0-------------------------------------|
|-2-----------0-------------------------------------|
|-2-----------0-------------------------------------|
Chorus
|---------------------------------------------------|
|---------------------------------------------------|
|---------------------------------------------------|
|-2-2-2-12----2-2-2-12---2-2-2-12---5-5-5-5-5-5-5---|
|-2-2-2-12----2-2-2-12---2-2-2-12-------------------|
|-2-2-2-12----2-2-2-12---2-2-2-12-------------------|
pm. . . . . . . . . . . . . . . .
Interlude (once again with the delay).
x2 then
|------------------------|-----------|
|--17----20---22--19-|-----------|
|------------------------|-----------|
|------------------------|----2------|
|------------------------|----2------|
|------------------------|----2------|
|---------------------------------------------------|
|---------------------------------------------------|
|--------------------7-7----------------------------|
|-2--0-0-0--5--0-0--7-7-0--------------------------|
|-2--0-0-0--5--0-0--5-5-0--------------------------|
|-2--0-0-0--5--0-0------0--------------------------|
You're such a backstabber
|---------------------------------------------------|
|---------------------------------------------------|
|-------------7-7-7-7-7-7-7-------------------------|
|-2-2-0-2-0-2-7-7-7-7-7-7-7-0-----------------------|
|-2-2-0-2-0-2-5-5-5-5-5-5-5-0-----------------------|
|-2-2-0-2-0-2---------------0-----------------------|
any questions or comments mail me @ [email protected]




Ваше мнение



Капча