P.O.D.--Lo Siento

Tabbed by:PodFan#1
E-Mail:[email protected]

Tuning:D-G-C-F-A-D

D|---------------------------|---------------------------|------------------|
G|--7----7----7----7--87-108-|-8-(10)----7---(7)-8-------|-10---------------|
C|---------------------------|---------------------------|------------------|
F|---------------------------|---------------------------|------------------|
A|---------------------------|---------------------------|------------------|
D|---------------------------|---------------------------|------------------|

D|------------------|----------------------|-------------------------------|
G|---10-------------|-10----10--8--108-7---|-8----8-7-----7----------------|
C|------------------|----------------------|----9-----9-7---9-7-----7------|
F|------------------|----------------------|--------------------10----10-9-|
A|------------------|----------------------|-------------------------------|
D|------------------|----------------------|-------------------------------|

D|--------------------------|-----------------|-----------------|
G|--------------------------|-----------------|-----------------|
C|--------------------------|-----------------|-5/7-------7-----|
F|---109---10---9----7------|-79--7---9---10--|-------------10--|
A|--------------------------|-----------------|-----------------|
D|--------------------------|-----------------|-----------------|

D|----------------|-------------------|-----------------|---------------|
G|----------------|-------------------|-----------------|---------------|
C|----------------|-------------------|-----------------|---------------|
F|---9------7--5--|-7----5--4-(5)-----|-754--7--545--7--|-7----5--4-----|
A|----------------|-------------------|-----------------|---------------|
D|----------------|-------------------|-----------------|---------------|

D|-------------------|----------------|----------------------|--------------|
G|-------------------|----------------|----------------------|--------------|
C|-------------------|----------------|----4--4/5-----4------|--------------|
F|---754--754--5--7--|-7----5--4------|-7-----------------5--|-7------------|
A|-------------------|----------------|----------------------|--------------|
D|-------------------|----------------|----------------------|--------------|

That's it. Have Fun.:>
Plez email me with your questions, comments, how much u luved it, how much you
hated it whatever AnDy [email protected]




Ваше мнение



Капча