Artist : POD
Song : Know Me
Album : Brown
Label : Rescue Records
Tabbed : Nate - [email protected]


E|--------------------------------------------|
B|--------------------------------------------|
G|--------------------------------------------|
D|--------------------------------2--3--2-----|
A|-----------------------------------------3--|
E|--0--1--0--1--0--0--1--0--1--0--------------|



E|---------------------------------------------|
B|---------------------------------------------|
G|---------------------------------------------|
D|---2--3--2--3--2--2--3--2--3--2--2--3--2-----|
A|---2--3--2--3--2--2--3--2--3--2-----------3--|
E|---0--1--0--1--0--0--1--0--1--0--------------|



E|---------------------------------------------|
B|---------------------------------------------|
G|---8--9--8--8--7--4--5--4--4-----------------|
D|---8--9--8--8--7--4--5--4--4--2--2--3--2-----|
A|---7--8--7--7--5--2--3--2--2--------------2--|
E|---------------------------------------------|



E|---------------------------------|
B|---------------------------------|
G|---8--9--8--8--8--9--8--8--7--7--|
D|---8--9--8--8--8--9--8--8--7--7--|
A|---7--8--7--7--7--8--7--7--5--5--|
E|---------------------------------|



E|---------1------------------------------------------|
B|------------1---------------------------------------|
G|------------------------------------------2^--3--2--|
D|---3--3--------2--2--2--2--2--2--2--2--2------------|
A|---3--3--------2--2--2--2--2--2--2--2--2------------|
E|---1--1--------0--0--0--0--0--0--0--0--0------------|



E|---------------------------------------------------|
B|---------------------------------------------------|
G|---------------------------------------------------|
D|---0--0--0--1--1--1--3--3--3-----------0--0--1--1--|
A|------------------------------3--3--3--------------|
E|---------------------------------------------------|


End
E|---------------------------------|
B|---------------------------------|
G|---2--2--3--2--------------------|
D|---------------3--2--3--2-----0--|
A|---------------------------3-----|
E|---------------------------------|

I don't have the cd with me so i don't know the number of times to play
each part, but you can figure it out. The bass line will be posted soon
(um, just kidding). Questions Comments to Nate. [email protected]

Visit the Official Mindrage Homepage at
http://www.geocities.com/sunsetstrip/palms/8114/




Ваше мнение



Капча