Song: Get up, Stand up (Bob Marley cover)
Artist: P.O.D.
Album: Mtv New Year 2002 Ave
tabbed by: szkieletor [email protected]
Riff1
G|---------------------------------------------------|
D|-------------5---------------------5---------------|
A|-33--5-6-------6---5-3---3-3(33)--3-------1-1-1-11-|
E|---------------------------------------------------|
( )-sometimes added
Riff2
G|-----------------------------------------------|
D|-------------5-5-------------5-----------------|
A|--33--5-6---6-6-6-5----3-3--3----1111----------|
E|-----------------------------------------------|
Riff3
G|-------------------------------------|
D|-----5-------------------------------|
A|----6---5---33(33)-------------------|
E|-------------------------------------|
Riff1 x 6
Riff2 x 3
ending verse Riff1
Riff1 x 4
Riff2 x 4
Riff1 x 4 last time in a middle Sonny breaks
Riff3 many times till the end of song bridge
only drums
Riff1
Riff2
Riff1 slides at the end
Enjoy (or die)!!!!! :)




Ваше мнение



Капча