-------------------------------------------------------------------------------
Execute the Sounds - P.O.D.
-------------------------------------------------------------------------------
Tabbed by: Pod4477
Email:
Tuning: Drop C (Drop D the down one step each string) can also be played with
the lowest string tuned to D but I perfer Drop C tuning.
Intro/Verse
d|--------------------------------------------------------------------------
A|--------------------------------------------------------------------------
F|---0---0---0---0-----0---0---0---0----------------------------------------
C|------0-------0---------0-------0-----------------------------------------
G|-5---2---5---2-----6---3---6---3------------------------------------------
C|--------------------------------------------------------------------------
Chorus x4
d|--------------------------------------------------------------------------
A|--------------------------------------------------------------------------
F|--------------------------------------------------------------------------
C|-5-5-5--7--5-5-5--7--8-8-8--10--6-6-6-6-6-6-------------------------------
G|-5-5-5-----5-5-5-----8-8-8------6-6-6-6-6-6-------------------------------
C|-5-5-5-----5-5-5-----8-8-8------6-6-6-6-6-6-------------------------------
Bridge x4
d|--------------------------------------------------------------------------
A|--------------------------------------------------------------------------
F|--------------------------------------------------------------------------
C|--------------------------------------------------------------------------
G|--5-6-5-3-5-5------------5-6-5-3-5-5--6-6---------------------------------
C|---------------5-5--8-8-------------------6-6-----------------------------
Song Format:
Intro
Verse
Chorus x4
Verse
Chorus x4
Bridge x4
Chorus
Outro
Outro is same as intro except he slows down at the end.
| / slide up
| slide down
| h hammer-on
| p pull-off
| ~ vibrato
| + harmonic
| x Mute note
============================================================================




Ваше мнение



Капча