Coming Back
Artist: P.O.D.
Album: Snuff The Punk
Transcribed by Justin Lanfell

/W Heavy Distortion

Intro:
|-----9------9---------------|
|----------------------------|
|----------------------------|
|----------------------------|
|----------------------------|
|-9-9----9-9----3--2--7/9----|

Intro Riff: at 0:12
|----------------------------|
|----------------------------|
|------7-6-5-----------------|
|------------7-6-5-----------|
|------------------7-5-------|
|-7/9------------------7/9---|

2nd Intro:
|----------------------------|
|----------------------------|
|----------------------------|
|----------------------------|
|----------------------------|
|-9--0--2--3--2--0--7/9------|

Chorus:
|----------------------------|
|----------------------------|
|----------------------------|
|11---5--4--7--4-------------|
|11---5--4--7--4-------------|
|-9---3--2--5--6-------------|

Bridge:
|----------------------------|
|----------------------------|
|----------------------------|
|----------------------------|
|----------------------------|
|-9--19/21-------------------|

Order:
Intro-Chorus-Bridge-Chorus-Bridge-2nd Intro-Chorus

That's It.

Justin Lanfell
[email protected]
Please don't publish without permission.

1993-94 Rescue Records
1075 Bay Blvd. Suite A
Chula Vista, CA 91911
All Rights Reserved. Unauthorized Reproduction is a Violation of
Applicable Laws.




Ваше мнение



Капча