P.O.D.
Change The World
Payable Upon Death
Tuning: CGCFAD
(Or DADGBE for those who dont feel like
Tuning down, although it'll be a whole
step higher)
|o o|
|o o| : Repeat
/ : Slide up
x : Mute string
t : Tremblo pick
PM...: Palm Mute
Intro/Chorus
|----------------------------------------|
|----------------------------------------|
|o---------------------------------------|
|o3-3-3-3--0--0--10-10-10-10-10-10-10----|
|-3-3-3-3--0--0---8--8--8--8--8--8--8----|
|-3-3-3-3--0--0---8--8--8--8--8--8--8----|2x
|----------------------------------------|
|----------------------------------------|
|----------------------------------------|
|-7-7-7-7--7--7--9-9-9-9-9-9-9-----------|
|-5-5-5-5--5--5--5-5-5-5-5-5-5-----------|
|-5-5-5-5--5--5--5-5-5-5-5-5-5-----------|
|----------------------------------------|
|----------------------------------------|
|---------------------------------------o|
|-10-10-10-10-10-10-12-12-12-12-12-12-12o|
|--8--8--8--8--8--8--8--8--8--8--8--8--8-|
|--8--8--8--8--8--8--8--8--8--8--8--8--8-|
Verse
|----------------------------------------|
|----------------------------------------|
|----------------------------------------|
|-0-0-0----------------------------------|
|-0-0-0-7-7-7--7--8-8-8--8--8/-12-12-12--|
|-0-0-0----------------------------------|
|----------------------------------------|
|----------------------------------------|
|----------------------------------------|
|----------------------------------------|
|---12-12-12--12--8-8-8--8--7-7-7--------|
|----------------------------------------| 3x, Dont play 7s last time around
Bridge (Comes in after | 5 5 9 x x x | on
the second half of the second chorus)
|----------------------------------------|
|----------------------------------------|
|----------------------------------------|
|-10-----12-----7-----9----10------------|
|--8------------5-----------8-----8------|
|--8------------5-----------8------------|
|----------------------------------------|
|----------------------------------------|
|-10t---/12t---/14t---/17t---/19t--------|
|--x------x------x------x------x---------|
|--8t---/10t---/12t---/15t---/17t--------|
|----------------------------------------|
|----------------------------------------|
|----------------------------------------|
|----------10-10-10-----------10-10-10---|
|-3-0-3-0---x--x--x--3-0-3-0---x--x--x---|
|-3-0-3-0---8--8--8--3-0-3-0---8--8--8---|
|-3-0-3-0------------3-0-3-0-------------|
|----------------------------------------------|
|----------------------------------------------|
|----------------------------------------------|
|-7-7-7-7--7-7-7-7--7-7--7-7-7-7--7-7-7-7--7-7-|
|-5-5-5-5--5-5-5-5--5-5--5-5-5-5--5-5-5-5--5-5-|
|-5-5-5-5--5-5-5-5--5-5--5-5-5-5--5-5-5-5--5-5-|
|----------------------------------------|
|----------------------------------------|
|----------10-10-10-----------10-10-10---|
|-3-0-3-0---x--x--x--3-0-3-0---x--x--x---|
|-3-0-3-0---8--8--8--3-0-3-0---8--8--8---|
|-3-0-3-0------------3-0-3-0-------------|
|----------------------------------------------|
|----------------------------------------------|
|----------------------------------------------|
|-7-7-7-7--7-7-7-7--7-7--7-7-7-7--7-7-7-7--7-7-|
|-5-5-5-5--5-5-5-5--5-5--5-5-5-5--5-5-5-5--5-5-|
|-5-5-5-5--5-5-5-5--5-5--5-5-5-5--5-5-5-5--5-5-|
|----------------------------------------|
|----------------------------------------|
|----------10-10-10----------------------|
|-3-0-3-0---x--x--x--3-0-3---------------|
|-3-0-3-0---8--8--8--3-0-3-3-2-0-3-2-0---|
|-3-0-3-0------------3-0-3-3-2-0-3-2-0---|
PM...........
|----------------------------------------------|
|----------------------------------------------|
|----------------------------------------------|
|-7-7-7-7--7-7-7-7--7-7--7-7-7-7--7-7-7-7--7-7-|
|-5-5-5-5--5-5-5-5--5-5--5-5-5-5--5-5-5-5--5-5-|
|-5-5-5-5--5-5-5-5--5-5--5-5-5-5--5-5-5-5--5-5-|
Overdubbed Riff (Comes in halfway through second to last chorus)
Tremblo Picked
|----------------------------------------------|
|----------13---------13--10-----10--8-----8---|
|---10--9------10--9----------7---------7------|
|----------------------------------------------|
|----------------------------------------------|
|----------------------------------------------|
Outro
|----------------------------------------|
|----------------------------------------|
|----------10-10-10-----------10-10-10---|
|-3-0-3-0---x--x--x--3-0-3-0---x--x--x---|
|-3-0-3-0---8--8--8--3-0-3-0---8--8--8---|
|-3-0-3-0------------3-0-3-0-------------|
Intro
Verse
Chorus
Verse
Chorus
Bridge
Chorus
Chorus
Outro
Please Rate
-GuywithGuitar




Ваше мнение



Капча