Song: Bullet the Blue Sky
Artist: Payable on Death (P.O.D.)
Album: The Fundamental Elements of Southtown
Tabbed by: kalebg. [email protected] - www.abidingfire.cjb.net
Dropped D tuning
Intro: (Note: Don't let the Am that you slide down to from the Dm ring.)
Just let feedback pour out of your amp. Then:
E-x-x-x-x---------
B-x-x-x-x-6~--6/1-
G-x-x-x-x-7~--7/2-
D-x-x-x-x-7~--7/2-
A-x-x-x-x-5~--5/0-
D-x-x-x-x-0~------
Dm (05776x)
/ = slide
Verse 1: Just let this ring while feedback pours out of your amp. (The D in
the parentheses can be played instead of the D on the A string.)
E-----
B-----
G-----
D-(0)-
A--5--
D--0~-
Chorus:
E----------------------------
B-3-3/5-5-5/6-6-1-1-1/3------
G----------------------------
D----------------------------
A----------------------------
D----------------------------
Verse 2: On this verse, it sound like Marcos is playing this:
E-------------------------
B-------------------------
G-------------------------
D-------------------------
A-5-5-5--5-5-5-5--5-5-3-3-
D-0-0-0--0-0-0-0--0-0-0-0-
(Chorus)
(Intro again)
(Verse 1 guitar)
Solo: sb = slight bend, b = bend
E-10----10---10----10-----------------------------------------------------------------
B---10----10---10----10---------------------------------------------------------------
G-----10---10----10----10-10/12-12-12-12-12-12-12sb-12b-10/12-12-12-12-12-12-12sb-12b-
D-------------------------------------------------------------------------------------
A-------------------------------------------------------------------------------------
D-------------------------------------------------------------------------------------
E-10----10----10----10-----------------------------------------------------------------
B---10----10----10----10---------------------------------------------------------------
G-----10---10-----10----10-10/12-12-12-12-12-12-12sb-12b-10h12-10h12-10h12-10h12-10h12-
D--------------------------------------------------------------------------------------
A--------------------------------------------------------------------------------------
D--------------------------------------------------------------------------------------
E--------------------8~-7-7~-5-5~-1-1~-8~-7-7~5-5~-11h13-11h13-11h13-11h13-11h13-
B--------------------------------------------------------------------------------
G-10h12-10h12-10h12--------------------------------------------------------------
D--------------------------------------------------------------------------------
A--------------------------------------------------------------------------------
D--------------------------------------------------------------------------------
E-11h13-11h13-11h13-14b----------
B--------------------------------
G--------------------------------
D--------------------------------
A--------------------------------
D--------------------------------
(Chorus)
The hit a D5 (000xxx) and let it fade out while Sonny does Bono's talk.
godbless.




Ваше мнение



Капча