Payable on Death by:Kory Mauldin
Album:Brown * =pitch harmonic
Song:Brown PM---| =Palm mute

Riff A (four times)

e-----------------------------------------------------------------|
b-----------------------------------------------------------------|
g-----------------------------------------------------------------|
d-----------------------------------------------------------------|
A-------------3--3--3--0---3-0--1------------3--3--3--0---3-0--5--|
D---0--0---0-----------------------0--0---0-----------------------|

PM-----------------------------------------------------------|

______________________________________

Riff B (4 times)

e-------------------------------------|
b-------------------------------------|
g-------------------------------------|
d---0--0---5p3--------3--3---5--3--0--|
A---0--0-------5p3p0--3--3---5--3--0--|
D---0--0--------------3--3---5--3--0--|

PM-----|
______________________________________

Riff C (lots of harmonics, FUN TOO)

e------------------------------------------------------------|
b--------------------------------------------------------5---|
g-----------------------------------------5------------5-----|
d--3--3---5---5---3--3-----------0--0-------5---0--0---------|
A--3--3-----5-----3--3---5---5---0--0---5-------0--0---------|
D--3--3-----------3--3-----5-----0--0-----------0--0---------|
* * * * * * * * * * *
_____________________________________

Riff D

e-----------------------------------------------|
b-----------------------------------------------|
g-----------------------------------------------|
d---3--3----3---3--3----3---3--3----3---3/5-----|
A---3--3----3---3--3----3---3--3----3-----------|
D---3--3----3---3--3----3---3--3----3-----------|




Ваше мнение



Капча