drop d tuning

INTRO
E---------------------------------------------------------------
B---------------------------------------------------------------
G---------------------------------------------------------------X3
D---------------------------------------------------------------
A---------------------------------------------------------------
D-2-2-2-2-2-0-0-0-2-2-2-2-2-0-0-0-5-5-5-5-5-5-5-5-7-7-7-7-0-0-0-

then play

VERSE
E---------------------------------------------------------------
B---------------------------------------------------------------
G---------------------------------------------------------------
D-2-2-2-2-2-0-0-0-2-2-2-2-2-0-0-0-5-5-5-5-5-5-5-5-7-7-7-7-0-0-0-
A-2-2-2-2-2-0-0-0-2-2-2-2-2-0-0-0-5-5-5-5-5-5-5-5-7-7-7-7-0-0-0-
D-2-2-2-2-2-0-0-0-2-2-2-2-2-0-0-0-5-5-5-5-5-5-5-5-7-7-7-7-0-0-0-

CHORUS play the first time X2 and the second time X4
and END WITH D-2
A-2
D-2

E---------------------------------------------------------------
B---------------------------------------------------------------
G------7---------7----------------------------------------------
D-2-2--X----2-2--X----7-7-7-7-7-0-7-7-7-7-7-0-------------------
A-2-2--5----2-2--5----7-7-7-7-7-0-7-7-7-7-7-0-------------------
D-2-2-------2-2-------7-7-7-7-7-0-7-7-7-7-7-0-------------------

then play
BRIDGE
D----2-0-2-0-5-5-5-5-5-5-5-5-7-7-7-7-0-0-0
A----2-0-2-0-5-5-5-5-5-5-5-5-7-7-7-7-0-0-0
D----2-0-2-0-5-5-5-5-5-5-5-5-7-7-7-7-0-0-0

D---0---2--0----0---2--0----0---2--0----0---2--0----0---2--0----0---
A-9b-0--2--0--9b-0--2--0--9b-0--2--0--9b-0--2--0--9b-0--2--0--9b-0--
D-------2--0--------2--0--------2--0--------2--0--------2--0--------

then plat chorus x4 if you have any ?'s e-mail: [email protected]




Ваше мнение



Капча