Band:P.O.D.
Song:Asthma
Abum:Payable on death
INTRO/VERSE:
(clean delay)
D|-------------------|----------------------------------|
A|-------------------|----------------------------------|
F|-------------------|----------------------------------|
C|-----7--7-5------5-|-----7--12-12-7-10-5------------5-|
G|---7-----------5---|---7--------------------------5---|
C|-7-----------5-----|-7--------------------------5-----|
D|-------------------|----------------------------------|
A|-------------------|----------------------------------|
F|-------------------|----------------------------------|
C|-----7--7-5------5-|-----7--12-12-7-10-5--------5-5-5-|
G|---7-----------5---|---7------------------------5-5-5-|
C|-7-----------5-----|-7--------------------------5-5-5-|
CHORUS:
(distorsion)
D|---------------------------------|---------------------------------|
A|---------------------------------|---------------------------------|
F|---------------------------------|---------------------------------| play 2 times
C|-8-8-8-8-8-8-8-8-8-8-8-8-8-8-8-8-|-0-0-0-0-2-2-2-2-3-3-3-3-5-5-5-5-|
G|-8-8-8-8-8-8-8-8-7-7-7-7-7-7-7-7-|-0-0-0-0-0-0-0-0-0-0-0-0-0-0-0-0-|
C|-8-8-8-8-8-8-8-8-8-8-8-8-8-8-8-8-|-0-0-0-0-0-0-0-0-0-0-0-0-0-0-0-0-|
D|-------------------------------------|
A|-------------------------------------|
F|----------15151515----------15151515-|
C|-8-8-8-8--X-X-X-X--8-8-8-8--X-X-X-X--|
G|-8-8-8-8--13131313-8-8-8-8--13131313-|
C|-8-8-8-8-----------8-8-8-8-----------|
. . . . . . . .
D|--------------------------------------|
A|--------------------------------------|
F|----------14141414-----------17171717-|
C|-0-0-0-0--X-X-X-X---0-0-0-0--X-X-X-X--|
G|-0-0-0-0--12121212--0-0-0-0--15151515-|
C|-0-0-0-0------------0-0-0-0-----------|
. . . . . . . .
Verse:
(clean delay)
D|-------------------|----------------------------------|
A|-------------------|----------------------------------|
F|-------------------|--------10-9--7-5--5-2------------|
C|-----7--7-5------5-|-----7--------------------------5-| first and second
G|---7-----------5---|---7--------------------------5---| time
C|-7-----------5-----|-7--------------------------5-----|
D|-------------------|----------------------------------|
A|-------------------|----------------------------------|
F|-------------------|----------------------------------| third and fourth
C|-----7--7-5------5-|-----7--12-12-7-10-5--------5-5-5-| time
G|---7-----------5---|---7------------------------5-5-5-|
C|-7-----------5-----|-7--------------------------5-5-5-|
guitar 2
(distorsion, kind of reverb)
D|------------------------------------------------------|
A|------------------------------------------------------|
F|--------19/21----14-17---19-14--10-9------------------| third time
C|------------------------------------------------------|
G|------------------------------------------------------|
C|------------------------------------------------------|
D|------------------------------------------------------|
A|------------------------------------------------------|
F|--------19/21----14-17---17-16------------------------| fourth time
C|------------------------------------------------------|
G|------------------------------------------------------|
C|------------------------------------------------------|

CHORUS: 1 Times (distorsion)
Interlude:
guitar 1 (distorsion)
D|------------------|--------------------|
A|------------------|--------------------|
F|------------------|--------------------| x2
C|----------------7-|--------------------|
G|----------------5-|--------------------|
C|-0--10-7-5--0-0---|-0--10-12-7-7-5-8-8-|
. .
(clean)
D|---------------------------------|---------------------------------|
A|---------------------------------|---------------------------------|
F|---------------------------------|---------------------------------|
C|-7-7-7-7-7-7-7-7-3-3-3-3-3-3-3-3-|-7-7-7-7-7-7-7-7-5-5-5-5-5-5-5-5-|
G|-7-7-7-7-7-7-7-7-3-3-3-3-3-3-3-3-|-7-7-7-7-7-7-7-7-5-5-5-5-5-5-5-5-|
C|-7-7-7-7-7-7-7-7-3-3-3-3-3-3-3-3-|-7-7-7-7-7-7-7-7-5-5-5-5-5-5-5-5-|
guitar 2
(distorsion, kind of reverb)
D|-------------------------------------|
A|-------------------------------------|
F|--------19/21----14-17---19-14--10-9-|
C|-------------------------------------|
G|-------------------------------------|
C|-------------------------------------|
D|-------------------------------------|
A|-------------------------------------|
F|--------19/21----14-17---19-14--10-9-|
C|-------------------------------------|
G|-------------------------------------|
C|-------------------------------------|
(I can't figure out how the volume changes)
D|---------------------------------|
A|---------------------------------|
F|-9---------------5---------------|
C|---------------------------------|
G|---------------------------------|
C|---------------------------------|
D|---------------------------------|
A|---------------------------------|
F|-9---------------7---------------|
C|---------------------------------|
G|---------------------------------|
C|---------------------------------|
CHORUS:
(distorsion)
D|---------------------------------|---------------------------------|
A|---------------------------------|---------------------------------|
F|---------------------------------|---------------------------------| play 4 times
C|-8-8-8-8-8-8-8-8-8-8-8-8-8-8-8-8-|-0-0-0-0-2-2-2-2-3-3-3-3-5-5-5-5-|
G|-8-8-8-8-8-8-8-8-7-7-7-7-7-7-7-7-|-0-0-0-0-0-0-0-0-0-0-0-0-0-0-0-0-|
C|-8-8-8-8-8-8-8-8-8-8-8-8-8-8-8-8-|-0-0-0-0-0-0-0-0-0-0-0-0-0-0-0-0-|
D|-------------------------------------|
A|-------------------------------------|
F|----------15151515----------15151515-|
C|-8-8-8-8--X-X-X-X--8-8-8-8--X-X-X-X--|
G|-8-8-8-8--13131313-8-8-8-8--13131313-|
C|-8-8-8-8-----------8-8-8-8-----------|
. . . . . . . .
D|--------------------------------------|
A|--------------------------------------|
F|----------14141414-----------17171717-|
C|-0-0-0-0--X-X-X-X---0-0-0-0--X-X-X-X--|
G|-0-0-0-0--12121212--0-0-0-0--15151515-|
C|-0-0-0-0------------0-0-0-0-----------|
. . . . . . . .
D|-------------------------------------|
A|-------------------------------------|
F|----------15151515----------15151515-|
C|-8-8-8-8--X-X-X-X--8-8-8-8--X-X-X-X--|
G|-8-8-8-8--13131313-8-8-8-8--13131313-|
C|-8-8-8-8-----------8-8-8-8-----------|
. . . . . . . .
D|--------------------------------------|
A|--------------------------------------|
F|----------14141414-----------17171717-|
C|-0-0-0-0--X-X-X-X---0-0-0-0--X-X-X-X--|
G|-0-0-0-0--12121212--0-0-0-0--15151515-|
C|-0-0-0-0------------0-0-0-0-----------|
. . . . . . . .

Outro:
(clean delay)
D|-------------------|----------------------------------|
A|-------------------|----------------------------------|
F|-------------------|--------10-9--7-5--5-2------------|
C|-----7--7-5------5-|-----7--------------------------5-|
G|---7-----------5---|---7--------------------------5---|
C|-7-----------5-----|-7--------------------------5-----|
D|-----------------------|
A|-----------------------|
F|--------10-9--7-5--5-2-|
C|-----7-----------------|
G|---7-------------------|
C|-7---------------------|
This is my third tab, if there is any mistakes, correct my tab.
*Rate my tab please.




Ваше мнение



Капча