-------------------------------------------------------------------------------
ALIVE - P.O.D.
-------------------------------------------------------------------------------
Tabbed by:Richard G. Amores
Email:[email protected]
.... comments appreciated....

Tuning:dropped-D

Intro:
D|------------------------------------------------------------------|
A|------------------------------------------------------------------|
F|------------------------------------------------------------------|
C|------------------------5-5-5--5-5-5-5-5------5-5-5-5-------------|
G|-2-2-2-0-2------0-0-0-0-3-3-3--3-3-3-3-3------3-3-3-3-5-5-5-------|
C|-2-2-2-0-2--------------------------------------------5-5-5-------|

Verse: play riff 1 3x then play...
D|------------------------------------------------------------------|
A|------------------------------------------------------------------|
F|------------------------------------------------------------------|
C|------------------------5-5-5--5-5-5-5-5--------------------------|
G|-2-2-2-0-2------0-0-0-0-3-3-3--3-3-3-3-3------5-5-----5-----------|
C|-2-2-2-0-2------------------------------------5-5-0-0-5-0---------|

Chorus:
D|---------------2------------|-------------------------------------|
A|---------------3------------|-------------------------------------|
F|-0-------------0------------|-------------------------------------|
C|----------------------------|---------5-5-5-4---4-4---4-----0-----|
G|-3-3-3-3-3-3-3-3------------|-2-2-2-2-2-2-2-2---2-2---2-----0-----|
C|----------------------------|-2-2-2-2-2-----2---------------0-----|

D|---------------------------------------------------------------------------|
A|---------------------------------------------------------------------------|
F|---------------------------------------------------------------------------|
C|---------------------------------------------------------------------------|
G|-5-5-5-5--5-5-5-5--5-5-5-5--5------5-5-5-5--5-5-5-5--10p97-9----75p0-----|
C|-5-5-5-5--5-5-5-5--5-5-5-5--5-0----5-5-5-5--5-5-5-5------------------------|

Interlude:with distortion,delay & flanger

D|--------------------------14h15p14-14h15p14-14h15p14-14h15p14--15p14-------|
A|---------------------------------------------------------------------------|
F|---------0-----------------------------------------------------------------|
C|-2~--(2)------4------0-----------------------------------------------------|
G|---------------------------------------------------------------------------|
C|---------------------------------------------------------------------------|

D|-15p14-15p14-15p14--15p14-15p14h15p14h15-|
A|-----------------------------------------|
F|-----------------------------------------|
C|-----------------------------------------|
G|-----------------------------------------|
C|-----------------------------------------|

Breakdown
D|-------------------------|
A|-------------------------|
F|---------0---------------|
C|-2~--(2)------4-----0----|
G|-------------------------|
C|-------------------------|

D|-14h15p14-15p14--15p14--15p14--15p14--15p14-14-15p14-14-15p14-14-15p14-14-15-|
A|------------------------------------------------------------------------------|
F|------------------------------------------------------------------------------|
C|------------------------------------------------------------------------------|
G|------------------------------------------------------------------------------|
C|------------------------------------------------------------------------------|

Outro:
D|---------------------------------|
A|---------------------------------|
F|---------------------------------|
C|---------------------------------|
G|-2-2-2-0-2------0-0-0-2-0-2------|
C|-2-2-2-0-2------0-0-0-2-0-2------|

--GthreeC--

| / slide up
| slide down
| h hammer-on
| p pull-off
| ~ vibrato
| + harmonic
| x Mute note
========================================================================




Ваше мнение



Капча