Title: Alive
Band: P.O.D.
Album: Satellite
Tuning: Dropped C (CGCFAd)
Tabbed by: [email protected]
--------------------------------
| p - pull off h - hammer on |
| / - slide up |
--------------------------------
Intro
d|----------------------------------------------------
A|----------------------------------------------------
F|------------2-2-2-2-5-5-5-5-5-5-5-5--5-5-5-5--------
C|-2-2-2-0-2--2-2-2-2-5-5-5-5-5-5-5-5--5-5-5-5-5-5-5--
G|-2-2-2-0-2--0-0-0-0-3-3-3-3-3-3-3-3--3-3-3-3-5-5-5--
C|-2-2-2-0-2-----------------------------------5-5-5--
Tag 1 2
d|-------------------------------------[-------------]--[-------------]--
A|-------------------------------------[-------------]--[-------------]--
F|------------2-2-2-2-5-5-5-5-5-5-5-5--[-------------]--[-------------]--
C|-2-2-2-0-2--2-2-2-2-5-5-5-5-5-5-5-5--[5-5-0-5-0-5-0]--[5-5-0-5-5-5-5]--
G|-2-2-2-0-2--0-0-0-0-3-3-3-3-3-3-3-3--[5-5-0-5-0-5-0]--[5-5-0-5-5-5-5]--
C|-2-2-2-0-2---------------------------[5-5-0-5-0-5-0]--[5-5-0-5-5-5-5]--
Chorus*
d|---3-----------------------------
A|---3-----------------------------
F|-5-5-----------------------------
C|-5-5--2--5-5----5--5-4-2-4--2-0--
G|-3-3--2--5-5----5----------------
C|------2--5-5-2--5----------------
Bridge 1 ** 2 1
d|-------------[-14h15p14-14h15p14-14h15p14-14h15p14-]-14h15p14-14h15p14h15p14--|--12--|--
A|------------------------------------------------------------------------------|--12--|--
F|------------------------------------------------------------------------------|--12--|--
C|-2--3/5-4---------------------------------------------------------------------|------|--
G|----------5-------------------------------------------------------------------|------|--
C|------------------------------------------------------------------------------|------|--
Chorus 2* **
d|---3------[-14h15p14-14h15p14-14h15p14-14h15p14-]-- [note: marcos does this slide]
A|---3----------------------------------------------- [ type thing after doing]
F|-5-5----------------------------------------------- [ this once but he has a]
C|-5-5--2-------------------------------------------- [ heavy delay put on it ]
G|-3-3--2--------------------------------------------
C|------2--------------------------------------------
End
d|-------------------------
A|-------------------------
F|-------------------------
C|-2-2-2-0-2--2-2-0-2-0-2--
G|-2-2-2-0-2--2-2-0-2-0-2--
C|-2-2-2-0-2--2-2-0-2-0-2--
Intro (5x)
Tag 1
Chorus (2x)
Intro (3x)
Tag 2
Chorus (2x)
Bridge
Chorus (2x)
Chorus 2 (2x)
End (4x)
* you'll have to listen to the song to get the proper strumming patterns
** play the bracketed piece twice




Ваше мнение



Капча